Ария - Осколок льда, аккорды

Прокрутка
Тональность
Шрифт
100
Tempo: slow (72 bpm)
Tuning: normal
INTRO:
(0:01 - 0:26)
Riff 1: (play 2 times) (both guitars clean)
Gtr.1
E|-------------0--------0--------0--------0-------|
H|----------1-----1--------0--------0--------0----|
G|-------2-----------2--------2--------2--------0-|
D|----2-------------------------------------------|
A|-0----------------------------------------------|
E|------------------------------------------------|
 
E|----------1--------1--------1--------1-------|
B|-------1-----1--------1--------1--------1----|
G|----2-----------2--------2--------2--------2-|
D|-3-------------------------------------------|
A|---------------------------------------------|
E|---------------------------------------------|

Gtr.2
E|--------------------------------------------|----------------|
H|----------3--5--------3---------------------|----------------|
G|-2--4--5-----------2--------2--5-----2--5---|-4--------5p4p2-|
D|--------------------------------------------|----------------|
A|--------------------------------------------|----------------|
E|--------------------------------------------|----------------|

Bass
G|-------------------------------------------------|---|
D|-------------------------------------------------|---|
A|-0-----------------------------------0--3--------|---|
E|-------------------------------------------------|-1-|

Gtr.1
E|--------------0--------0--------0--------0--------|
H|-----------3-----3--------3--------3--------3-----|
G|--------2-----------2--------2--------2--------2--|
D|--0-----------------------------------------------|
A|--------------------------------------------------|
E|--------------------------------------------------|

E|-------------0--------0--------0--------0--------|
B|----------1-----1--------0--------0--------0-----|
G|-------2-----------2--------2--------2--------2--|
D|----2--------------------------------------------|
A|-0-----------------------------------------------|
E|-------------------------------------------------|

Gtr.2
E|--------------------------------------------------|---|
H|-----------3--5--------3--------------------------|---|
G|--2--4--5-----------2--------2--5-----2--4--------|-2-|
D|--------------------------------------------------|---|
A|--------------------------------------------------|---|
E|--------------------------------------------------|---|

Bass
G|--------------------------------------------------|---|
D|--------------------------------------------------|---|
A|--5-----------------------------------0--2--------|-0-|
E|--------------------------------------------------|---|
(0:26 - 0:53)

Verse 1:
Voice
E|-------------------------------------------------------------|
H|-----------------5-----3-------------------3-----------------|
G|---2------4---5-----------5----4---4-------------5--5----2---|
D|-------------------------------------------------------------|
A|-------------------------------------------------------------|
E|- Noch?  u -nesla  tyazhe - ly - e    tu - uchi, no -|

Gtr.1+bass
E|-------------------------------------------------|
H|-------1-----0-----1-----------1-----0-----1-----|
G|----2-----2-----2-----2-----2-----2-----2-----2--|
D|-------------------------------------------------|
A|-0-----------------------0-----------------------|
E|-------------------------------------------------|

E|-------------------------------------------------|
B|-------1-----0-----1-----------1-----0-----1-----|
G|----0-----0-----0-----0-----0-----0-----0-----0--|
D|-------------------------------------------------|
A|-3-----------------------3-----------------------|
E|-------------------------------------------------|

Voice
E|---------------------------------------------------|
H|-------------------------5-----3-------------------|
G|---2-------------4---5------------5-----4-----5----|
D|---------------------------------------------------|
A|---------------------------------------------------|
E| dni        gor?kim sum - rakom   pol - ny. -|

Gtr.1+bass
E|-------------------------------------------------|
H|-------1-----0-----1-----------5-----3-----5-----|
G|----2-----2-----2-----2-----4-----4-----4-----4--|
D|-------------------------------------------------|
A|-------------------------------------------------|
E|-1-----------------------3-----------------------|

E|-------------------------------------------------|
B|-------1-----0-----1-----3-----1-----0-----1-----|
G|----2-----2-----2-----2-----2-----2-----2-----2--|
D|-------------------------------------------------|
A|-0-----------------------------------------------|
E|-------------------------------------------------|

...
(0:53 - 1:16)

CHORUS:
Voice
E|------------8------8---7-------5----------5-----------------|
H|-------------------------------------8--------5-------5-----|
G|------------------------------------------------------------|
D|------------------------------------------------------------|
A|------------------------------------------------------------|
E|--------   Ya  lyu -bil    i   ne - na -vi  - del  -|

Gtr.1
E|-------------------------------------------------|
H|-------1-----0-----1-----------5-----3-----5-----|
G|----2-----2-----2-----2-----4-----4-----4-----4--|
D|-------------------------------------------------|
A|-------------------------------------------------|
E|-1-----------------------3-----------------------|

E|-------------------------------------------------|
B|-------1-----0-----1-----------1-----0-----1-----|
G|----2-----2-----2-----2-----2-----2-----2-----2--|
D|-------------------------------------------------|
A|-0-----------------------0-----------------------|
E|-------------------------------------------------|

Bass
G|---------------------------|---------------------------------|
D|---------------------------|---------------------------------|
A|---------------------------|-0-----------3--2--0-----2--0----|
E|-1-----------------------3-|-------------------------------3-|

Voice
E|------------8------8---7-------5--------5-----5------|
H|-------------------------------------8---------------|
G|-----------------------------------------------------|
D|-----------------------------------------------------|
A|-----------------------------------------------------|
E|--------   No   te -per?   du - sha pus - ta   -|

Gtr.1
E|-------------------------------------------------|
H|-------1-----0-----1-----------5-----3-----5-----|
G|----2-----2-----2-----2-----4-----4-----4-----4--|
D|-------------------------------------------------|
A|-------------------------------------------------|
E|-1-----------------------3-----------------------|

E|-------------------------------------------------|
B|-------1-----0-----1-----------1-----0-----1-----|
G|----2-----2-----2-----2-----2-----2-----2-----2--|
D|-------------------------------------------------|
A|-0-----------------------0-----------------------|
E|-------------------------------------------------|

Bass
G|---------------------------|---------------------------------|
D|---------------------------|---------------------------------|
A|---------------------------|-0-----------------------2--0----|
E|-1-----------------------3-|-------------------------------3-|

Voice
E|---8---8---7-----5------5------------------------------------|
H|---------------------8--------5----5----------5--5--5--------|
G|--------------------------------------7---5-------------7-5--|
D|-------------------------------------------------------------|
A|-------------------------------------------------------------|
E|- Vsyo ischez - lo, ne os - ta - viv i sle -da. I ne znayu -|

Gtr.1
E|-------------------------------------------------|
H|-------1-----0-----1-----------5-----3-----5-----|
G|----2-----2-----2-----2-----4-----4-----4-----4--|
D|-------------------------------------------------|
A|-------------------------------------------------|
E|-1-----------------------3-----------------------|

E|-------------------------------------------------|
B|-------1-----0-----1-----------1-----0-----1-----|
G|----2-----2-----2-----2-----2-----2-----2-----2--|
D|-------------------------------------------------|
A|-3-----------------------0-----------------------|
E|-------------------------------------------------|

Bass
G|-----------------------------|-------------------------------|
D|-----------------------------|-------------------------------|
A|-----------------------------|-------------------------------|
G|---------|-2-----------------|-------------------------------|
D|---------|-3--------------5--|-7-----------------------------|
A|-3-2-0---|-3--------------5--|-7-----------------------------|
E|---------|-1--------------3--|-5---------------8-7-5---7-5-3-|
(2:15 - 3:18)

SOLO:
Gtr.3
E|----------------------------|--------------------------------|
H|----------------------------|--------------------------------|
G|-9bend11-----------9b11release10-----------hold then release-|
D|----------------------------|--------------------------------|
A|----------------------------|--------------------------------|
E|----------------------------|--------------------------------|

Bass
G|--------------------------------|----------------------------|
D|--------------------------------|----------------------------|
A|-0------------------0--0-h3-----|-5---0-h5-----3-----2-----3-|
E|--------------------------------|----------------------------|

Gtr.3
E|-------------------|-----------------------------------------|
H|-------------------|-----------------------------------------|
G|-9----9---9-bend-to-12-release-9-------------------9-bend-to-|
D|-------------------|-----------------------------------------|
A|-------------------|-----------------------------------------|
E|-------------------|-----------------------------------------|

Bass
G|---------------------------|---------------------------------|
D|-------------------7-------|-------------------------2-------|
A|----------------7----------|----------------------2-----2----|
E|-5-----------------------5-|-0-----------------------------0-|

Gtr.3
E|------------------------------------------------|------------|
H|------------------------------------------------|------------|
G|-to12-partial release to 10 bend 12 rel 10 rel 9|/17-16-16-14|
D|------------------------------------------------|------------|
A|------------------------------------------------|------------|
E|------------------------------------------------|------------|

Bass
G|---------------------------|---------------------------------|
D|---------------------------|---------------------------------|
A|---------------------------|----------0-h5-----3-----2-----3-|
E|-1-----------------------3-|-5-------------------------------|

Gtr.3
E|-----------------------------------------------|-------------|
H|-----------------------------------------------|-------------|
G|-14-------------------------------14--14bend16--16rel14-p-12-|
D|-----------------------------------------------|-------------|
A|-----------------------------------------------|-------------|
E|-----------------------------------------------|-------------|

Bass
G|---------------------------|---------------------------------|
D|-------------7-------------|-------------------------2-------|
A|----------7----------------|----------------------2-----2----|
E|-5-----------------5-------|-0-----------------------------0-|

Gtr.3
E|----------------------------22------------22-bend24--release-|
H|----------------------------20bend22----(20b22)--------------|
G|-12b14--------14b16------------|-----------------------------|
D|-------15--15-------17--17-----|-----------------------------|
A|-------------------------------|-----------------------------|
E|-------------------------------|-----------------------------|

Bass
G|-----------|-------------------------------------------------|
D|-----------|-------------------------------------------------|
A|-----------|-------------------------------------------------|
E|-1-------3-|-5--5--5--5--5--5--5--5--5--5--5--5--5--5--5--5--|

Gtr.3 Gtr.4
E|-------------------------------------------------|
H|-13-12-------------13-12-13-12-------13-12-------|
G|-14-12-14-12-14----14-12-14-12-14-12-14-12-14-12-|
D|-------15-14-15----------------15-14-------15-14-|
A|-------------------------------------------------|
E|-------------------------------------------------|

E|-------------------------------------------------|
B|-13-12-------------13-12-13-12-------13-12-------|
G|-14-12-14-12-14----14-12-14-12-14-12-14-12-14-12-|
D|-------14-12-14----------------14-12-------14-12-|
A|-------------------------------------------------|
E|-------------------------------------------------|

Bass
G|-------------------------|-----------------------------------|
D|-------------------------|-----------------------------------|
A|-------------------------|-----------------------------------|
E|-1-1-1-1-1-1-3-3-3-3-3-3-|-5-5--5--5--5--5--3--3--3--3--3--3-|

Gtr.3 Gtr.4
E|-------------------------------------------------|-----------|
H|-13-12-------------13-12-13-12-------13-12-------|-----15b17-|
G|-14-12-14-12-14----14-12-14-12-14-12-14-12-14-12-|-14--------|
D|-------15-14-15----------------15-14-------15-14-|-----------|
A|-------------------------------------------------|-----------|
E|-------------------------------------------------|-----------|

Bass
G|-------------------------------------------------|---|
D|-------------------------------------------------|---|
A|-------------------------------------------------|---|
E|-1--1--1-----1-----1--1--3--3--3-----3--3--3-----|-5-|
...
(3:19 - 3:45)

Verse 3:
Gtr.1
  Pust?   kazhdyy sam  naho - dit  do - ro - ogu,  moy
E|-0-----------------------------------------|-0-------0-------|
H|-1-----------------------------------------|-1----------1----|
G|-2-----------------------------------------|-0-------------0-|
D|-2-----------------------------------------|-2---------------|
A|-0-----------------------------------------|-3---------------|
E|-------------------------------------------|-----------------|

Gtr.1
  put? budet v sot - nyu raz dlinney.
E|-1------------3------------------|-0-------------------------|
H|-1------------3------------------|-1-3-----1-----0-----1-----|
G|-2------------4------------------|-2----2-----2-----2-----2--|
D|-3------------5------------------|-2-------------------------|
A|-3------------5------------------|-0-------------------------|
E|-1------------3------------------|---------------------------|

(3:45 - 4:22) CHORUS
(4:22 - 5:21) Repeat Riff 1, first with only gtr.2 part
 
 
Свернуть Распечатать

Видео