Ария - Возьми мое сердце, аккорды

Прокрутка
Тональность
Шрифт
100
Проигрыш:
1|---------10--------10--------5-------4-|
2|------10---------9---------6-------5---|
3|---10----------9---------7-------7-----|    2 (раза)
4|-0-----------0---------0-------0-------|
 
Куплет:
1|-------1-------0-------5-------4-|
2|-----3-------3-------6-------5---|
3|---2-------1-------7-------7-----|    2 (раза)
4|-0-------0-------0-------0-------|

1|-------3-3-3-----------1-------0-|
2|-----3---3---2-------3-------3---|
3|---3-----3-----1---2-------1-----|
4|---------2-------0-------0-------|
5|-5-------------------------------|

1|-------3-------3-1-1---2-|
2|-----3-------3---3---3-2-|
3|---3-------3-----3-----2-|
4|---------2---------------|
5|-5---------------1-----0-|

Слепая ночь легла у ног
И не пускает за порог
Брожу по дому как во сне
О мне покоя нет нигде
Тупая боль пробьет висок
И пальцы лягут на курок
А в зеркалах качнется призрак
Призрак любви

Припев:
        Dm
Возьми мое сердце
     F

Возьми мою душу
       Gm
Я так одинок в этот час
         C7
Что хочу умереть
     Dm
Мне некуда деться
          F
Свой мир я разрушил
          Gm
По мне плачет только свеча
        C7
а холодной заре

Ты умерла в дождливый день
И тени плыли по воде
Я смерть увидел в первый раз
Ее величие и грязь
В твоих глазах застыла боль
Я разделю ее с тобой
А в зеркалах качнется призрак
Призрак любви

F     B       C7
Я слышу утренний колокол
Он славит праздник

И сыпет медью и золотом
Dm            C
Ты теперь в царстве вечного сна

Я слышу утренний колокол
Он бесов дразнит
И звоном небо расколото
а земле я любил лишь тебя...

...Возьми мое сердце.

Outro:
1|---------10-------10-------5-----5-|
2|------10--------9--------8---8---7-|
3|---10---------9--------7-------7-7-|
4|0-----------0--------0-----------0-|
 
 
Свернуть Распечатать

Видео