Ария - Кто ты?, аккорды

Прокрутка
Тональность
Шрифт
100
 E |---------------------------------|---------------------------|
 B |---------------------------------|----------------3---1-3---1|
 G |2-----0-----0--------------------|2-----0-------0------------|
 D |--4-----2-----2-4-----4^5^4-2---0|--4-----2---2-----0-----0--|
 A |----------2-------5-----------0--|----------2----------0-----|
 E |----0---------------0------------|----0----------------------|

 E |---------------------------------|---------------------------|
 B |---------------------------------|------0-------0-3---1--0---|
 G |-2----0-----0--------------------|-2------0---0------------2-|
 D |---4----2-----2-4-----4^5^4-2---0|---4------2-------0------4-|
 A |----------2-------5-----------0--|---------------------0-----|
 E |----0---------------0------------|-----0---------------------|

 E |-0-------------|
 B |---0-----------|
 G |-------2-------|
 D |-----5---4^5-2-|
 A |---------------|
 E |---------------|

Снова полночь -
слышу чей-то голос,
Шепчет имя,
манит и зовет меня...

 E |---------------|--------------|--------------|---------------|
 B |-8----8-7---7--|5----5-4--4---|-1----1-4--4--|-5----5-4------|
 G |---9----------8|--5---------5-|---2---------5|---5------5-4--|
 D |---------------|--------------|--------------|--------------5|
 A |-----0----0----|----0----0----|-----0----0---|-----0---------|
 E |---------------|--------------|--------------|---------------|

И белым
Туманом
На стеклах чей-то вздох оставлен,
И гаснет вдруг пламя
Хотя нет ветра.
Вижу тень я -
Кто-то в черном у окна.

   C     B7        Em 
Кто ты? Наказанье или милость?
   C     B7        Em 
Кто ты? Отрекаться не спеши!
  C    B7          Em 
Может, за душой моей явилась?
  G        C   Em 
Только нет души.

Проклят, брошен
словно камень с неба,
Страшно падать,
только ждать еще страшней!
Все помнить
И жаждать
Любви, но быть распятым ею,
И мчаться
К безумью,
Услышав Голос...

Ровно полночь -
снова тень идет ко мне...
 
 

Видео