Ария - Осколок льда, аккорды

Прокрутка
Тональность
Шрифт
100
Into:
E|-------------------------------------------------------------|
B|-------------------------------------------------------------|
G|--------7-9-----7--------------------------------------------|
D|-7-9-10------10----9-10--7-10--9Н10р9-7----------------------|
А|-------------------------------------------------------------|
E|-------------------------------------------------------------|

E|-------------------------------------------------------------|
B|-------------------------------------------------------------|
G|---------7-9-----7-------------------------------------------|
D|--7-9-10------10-----9-10--7-9b(10)r9-7----------------------|
А|-------------------------------------------------------------|
E|-------------------------------------------------------------|
Fig 1: 2 times
 Am                       Fm
E|--------0-----0-----0-----0----|------1-----1------1----1----|
B|------1---1-----1-----1-----1--|----1---1------1-----1----1--|
G|----2-------2-----2-----2-----2|--2-------2------2-----2----2|
D|--2----------------------------|-3---------------------------|
А|0------------------------------|-----------------------------|
E|-------------------------------|1----------------------------|
                          Am
E|--------0-----0------0-----0----|--------0----0----0----0----|
B|------3---3------3-----3-----3--|------1---1----0----0----0--|
G|----2-------2------2-----2-----2|----2-------2----2----2----2|
D|--2-----------------------------|--2-------------------------|
А|0-------------------------------|0---------------------------|
E|--------------------------------|----------------------------|

Fig 2: 2 times
Am
E|------------------0---------------|
B|-----1---0---1--------1---0---1---|
G|---2---2---2---2----2---2---2---2-|
D|----------------------------------|
А|-0--------------------------------|
E|----------------------------------|
 C                       Fm           Gm
E|-------------------------------|--------------|-------3-------
B|---1---0---1----3---1---0---1--|---1---0---1--|---0-------0---
G|-0---0---0---0----0---0---0---0|-2---2---2---2|-0---0---0---0-
D|-------------------------------|--------------|---------------
А|3------------------------------|--------------|---------------
E|-------------------------------|1-------------|3--------------

E|-----------------|-----------------|
B|-----1---0---1---|-3---1---0---1---|
G|---2---2---2---2-|---2---2---2---2-|
D|-----------------|-----------------|
А|-0---------------|-----------------|
E|-----------------|-----------------|

Fig 3: 3 times

E|-----------------|-----------------|
B|-----1---0---1---|-3---1---0---1---|
G|---2---2---2---2-|---2---2---2---2-|
D|-----------------|-----------------|
А|-0---------------|-----------------|
E|-----------------|-----------------|
              G           третий раз играется с Gm
E|---------1-------|---------3-------| |---------3----------|
B|-----1-------1---|-----0-------0---| |-----3-------3------|
G|---2---2---2---2-|---0---0---0---0-| |---0---0---0---0----|
D|-----------------|-----------------| |--------------------|
А|-----------------|-----------------| |--------------------|
E|-1---------------|-3---------------| |-3------------------|

Fig 4: 1 times
E|-0---0-----------|---------0-------|------------------|
B|---1---3---3-1---|-1---1-------1---|-----1---0---1----|
G|---------4-----2-|---2---2---2---2-|---2---2---2---2--|
D|-----------------|-----------------|------------------|
А|-----------------|-----------------|------------------|
E|-----------------|-----------------|-1----------------|

E|---------3-------|---------2-------|-----------------|
B|-----0-------0---|-----3-------3---|-----3---3-1-0---|
G|---0---0---0---0-|---2---2---2---2-|---2---2-------0-|
D|-----------------|-0---------------|-0---------------|
А|-----------------|-----------------|-----------------|
E|-3---------------|-----------------|-----------------|

E|---------2-------|-----------------|
B|-----3-------3---|-3---1---0---1---|
G|---2---2---2---2-|---2---2---2---2-|
D|-0---------------|-----------------|
А|-----------------|-----------------|
E|-----------------|-----------------|

Fig 5: 2 times

E|---------0-------|---------0-------|---------0-------| 
B|-----1-------1---|-----1-------1---|-----0-------0---||П |В
G|---2---2---2---2-|---2---2---2---2-|---0---0---0---0-||Е |Т
D|-----------------|-2---------------|-----------------||Р |О
А|-0---------------|-----------------|-0---------------||В |Р
E|-----------------|-----------------|-----------------||Ы |О
                                                        |Й |Й
E|---------0-------|---------1-------|---------3-------|| |
B|-----0-------0---|-----1-------1---|-----0-------0---||Р |Р
G|---0---0---0---0-|---2---2---2---2-|---0---0---0---0-||А |А
D|-2---------------|-----------------|-----------------||З |З
А|-----------------|-----------------|-----------------|| |
E|-----------------|-1---------------|-3---------------|| /
                                      |
E|-----------------|-----------------|            |
B|-----1---0---1---|-3---1---0---1---|            |
G|---2---2---2---2-|---2---2---2---2-|            |
D|-----------------|-----------------|            |
А|-0---------------|-----------------|            |
E|-----------------|-----------------|            /

 Fig 6: 2 times
 играется
 один раз
 /     
E|---5----|---------------|--5--|--3--|--3--------1--|--3--|-0-|
B|---5----|---------------|--5--|--5--|----5------1--|--3--|-1-|
G|---5----|-7---5---4--5--|--5--|--5--|-----------2--|--4--|-2-|
D|--------|---7---7---7---|--7--|--5--|-------5---3--|--5--|-2-|
А|--------|---------------|--7--|--3--|-----------3--|--5--|-0-|
E|--------|---------------|--5--|-----|-----------1--|--3--|---|

Fil 1: distorsion

E|--|---|---|---|-------------|--|--|--|-------|---|---|-------|
B|--|---|---|---|-------------|--|--|--|-------|---|---|-------|
G|--|---|---|---|-------------|--|--|--|-------|---|---|-------|
D|2-|---|---|-2-|-----2-------|--|--|-2|-----2-|---|---|-5-4-2-|
А|0-|-3-|-5-|-0-|-3-2-0-3-2-5-|-3|-5|-0|-3-2-0-|-3-|-5-|-3-2-0-|
E|--|-1-|-3-|---|-----------3-|-1|-3|--|-------|-1-|-3-|-------|

E|---|---|---|-----|----|----|---|------|---|------|---|---|---|
B|---|---|---|-----|----|----|---|------|---|------|---|---|---|
G|---|---|-2-|-----|----|----|---|------|---|------|---|---|---|
D|---|-0-|-0-|-----|----|----|-2-|------|---|------|---|-0-|-2-|
А|-3-|---|---|-----|----|----|-0-|------|-2-|------|-3-|---|-0-|
E|-1-|-3-|---|-----|----|----|---|------|-0-|------|-1-|-3-|---|
                      р.m.......................
E|---|----|---|----|---|---|-----------------|-----------------|
B|---|----|---|----|---|---|-----------------|-----------------|
G|---|----|---|----|---|---|-----------------|-----------------|
D|-2-|----|---|----|---|-0-|-2-2-2-2-2-2-2-2-|-2-2-2-2-2-2-2-2-|
А|-0-|----|-2-|----|-3-|---|-0-0-0-0-0-0-0-0-|-0-0-0-0-0-0-0-0-|
E|---|----|-0-|----|-1-|-3-|-----------------|-----------------|

Fil 2: 2 times distorsion
 р.m.    р.m................   р.m............
E|----------------------------|---------------|----------------|
B|----------------------------|---------------|----------------|
G|----------------------------|---------------|----------------|
D|----------------------------|---------------|----------------|
А|-3-3-3--3--3-3-5-5-5--5-5-5-|-7-7-7--7--7-7-|-5-5-5--5-5-5---|
E|-1-1-1--1--1-1-3-3-3--3-3-3-|-5-5-5--5--5-5-|-3-3-3--3-3-3---|
  р.m.    р.m..........        /второй раз
E|-------------|--------------|-----|   |------|---|
B|-------------|--------------|-----|   |------|---|
G|----------------------------|-----|   |------|-2-|
D|----------------------------|---7-|   |-7----|-2-|
А|-3-3-3--3--3-3-5-5-5--5-5-5-|-7-7-|   |-5----|-0-|
E|-1-1-1--1--1-1-3-3-3--3-3-3-|-5---|   |------|---|

Solo: 2 times
E|-----10-8---10-8-3-|----|-10-8-7-8-|------|-----|--10-8-7-8--|
B|-10-------8--------|-10-|----------|------|-----|------------|
G|-------------------|----|----------|------|-----|------------|
D|-------------------|----|----------|------|-----|------------|
А|-------------------|----|----------|------|-----|------------|
E|-------------------|----|----------|------|-----|------------|

E|---|-10-12-|----|-----|-----|-----|-----|-----|-----|-----|---
B|---|-------|-10-|-----|-----|-----|-----|-----|-----|-----|---
G|---|-------|----|-----|-----|-----|-----|-----|-----|-----|---
D|---|-------|----|-----|-----|-----|-----|-----|-----|-----|---
А|---|-------|----|-----|-----|-----|-----|-----|-----|-----|---
E|---|-------|----|-----|-----|-----|-----|-----|-----|-----|---

E|--5|--5|--5|7---|-8-|---|----|-10-10-|-5-|-7---|-8---10---17-|
B|8--|8--|8--|--5-|---|-8-|-10-|-------|---|---5-|---6----8----|
G|---|---|---|----|---|---|----|-------|---|-----|-------------|
D|---|---|---|----|---|---|----|-------|---|-----|-------------|
А|---|---|---|----|---|---|----|-------|---|-----|-------------|
E|---|---|---|----|---|---|----|-------|---|-----|-------------|

E|-8-7-5---5|-8-7-8-7-5---8-7-5---8-7-5---5-|-8-7-8-7-5--8-7-5--
B|-------8--|-----------8-------8-------8---|----------8------8-
G|----------|-------------------------------|-------------------
D|----------|-------------------------------|-------------------
А|----------|-------------------------------|-------------------
E|----------|-------------------------------|-------------------
                              второй раз
E|-8-7-5---5-|8-7--8-7-5---8-7-5----5-||-12-|  |-5-|
B|-------8-------|-------8-------8----------|  |---|
G|---------------|--------------------------|  |---|
D|---------------|--------------------------|  |---|
А|---------------|--------------------------|  |---|
E|---------------|--------------------------|  |---|


конец: distorsion
E|---|------|---|------|---|------|---|------|---|------|
B|---|------|---|------|---|------|---|------|---|------|
G|---|------|---|------|---|------|---|------|---|------|
D|-2-|------|---|------|-0-|------|-2-|------|-2-|------|
А|-0-|------|-3-|------|-0-|------|-0-|------|-0-|------|
E|---|------|-1-|------|---|------|---|------|---|------|

E ---|------|---|------|---|
B ---|------|---|------|---|
G ---|------|---|------|---|
D ---|------|-0-|------|-2-|
А -3-|------|-0-|------|-0-|
E -1-|------|---|------|---|
 
 
Свернуть Распечатать

Видео