Бумбокс - Вахтерам, аккорды

Прокрутка
Тональность
Шрифт
100
Вступление(немного неточно, поэтому включаем свой музыкальный слух): 2 раза
1|-----------------------------------------------------1-1---1----------------------
2|-------------1-1---1-------------3-3---3-------------3-3---3-------------3-3---3--
3|-------------2-2---2-------------0-0---0-----------2-------------0-2-----1-1---1--
4|-----0-2---2---------0-2-------0-------------0-2-0-----------2-3-------2----------
5|-2-3-----0-------0-------0-2-------------2-3-------------3-----------2------------
6|-----------------------------3-------3---------------------------------------0----

                  Am
Тебе не нравится дым и черт с ним
               G6 
Он убивает слова, кругом голова
               Dm      Dm/C 
Уже разносит молва по дворам
           E7sus4     E7
Что между нами чивава.

О чем с тобой говорить, потеряли нить
Быть не собой перестать и дома спать
Нас не измерить на глаз, а сейчас
Зачем мы давим на тормоз, не на газ?

Вопрос извечный:  зачем да почему
Я понемногу с ума, ты не сама
А эти ночи в Крыму, - теперь кому?
Я если встречу, потом передам ему.

Писклявый твой голосок как электрошок
Что я бухой без вина - твоя вина
Теперь узнает страна до темна
Им донесут обо всем на FM волнах.

	         Am          G6
	Я помню белые обои, черная посуда
	Dm      Dm/C         E7sus4       E7  
	Нас в хрущевке двое, кто мы и откуда?
	Задвигаем шторы, кофеек, плюшки стынут
	Объясните теперь нам, вахтеры,
	Почему я на ней так сдвинут?


Давай вот так просидим до утра
Не уходи, погоди - но мне пора
И если выход один впереди
То почему мы, то холод то жара?

Раскладывать по местам я устал
И поворачивать вспять, ну вот опять
Прикосновения плавили мой метал
Ты элемент номер пять - ни дать ни взять.

Идет к финалу игра в этот раз
А ты все так же молчишь, я говорю
Минут пятнадцать осталось до утра
Не вызывай так словлю и свалю.

Попробуем все подшить, не ворошить
Мобильные номера постирать
А уходить, не спросив - нету сил
Давай попробуем заново все собрать.

	Припев:
	Белые обои, черную посуду
	Нас в хрущевке двое, кто мы и откуда?
	Задвигаем шторы, кофеек, плюшки стынут
	Объясните теперь нам, вахтеры,
	Почему я на ней так сдвинут?

Комментарий автора:

G6
E|---|---|---|---|
B|---|---|---|---|
G|---|---|---|---|
D|---|---|---|---|
A|---|-x-|---|---|
E|---|---|-x-|---| 

E7sus4
E|---|---|---|---|
B|---|---|---|---|
G|---|-x-|---|---|
D|---|---|---|---|
A|---|-x-|---|---|
E|---|---|---|---|

E7
E|---|---|---|---|
B|---|---|-x-|---|
G|-x-|---|---|---|
D|---|---|---|---|
A|---|-x-|---|---|
E|---|---|---|---|

Dm/C
E|-x-|---|---|---|
B|---|---|-x-|---|
G|---|-x-|---|---|
D|---|---|---|---|
A|---|---|-x-|---|
E|---|---|---|---|
 
 
Свернуть Распечатать

Видео