ДДТ - Белая птица (Вороны), аккорды

Прокрутка
Тональность
Шрифт
100
Em     Cmaj7     Am7     H7+
На небе вороны, под небом монахи,
И я между ними в расшитой рубахе,
   Cmaj7              Am7     H7+
Лежу на просторе, легка и пригожа,
   Em          Cmaj7 Am7         H7+
И солнце взрослее     и ветер моложе.

Меня отпевали в громадине храма,
Была я невеста, прекрасная дама,
Душа моя рядом стояла и пела,
Но люди, не видя, смотрели на тело.

Судьба и молитва менялись местами,
Молчал мой любимый и крестное знамя,
Лицо его светом едва освещало,
Простила его, ему все прощала.

Весна задрожав от печального звона,
Смахнула три капли на лики иконы,
Что мирно покоилась между руками,
Её целовало веселое пламя.

Свеча догорела, упало кадило,
Земля застонав, превращалась в могилу,
Я бросилась в небо за легкой синицей,
Теперь я на воле, я Белая Птица.

Взлетев на прощанье, кружась над родными,
Смеялась я, горе их не понимая,
Мы встретимся вскоре, но будем иными,
Есть вечная воля, зовет меня стая.

Переборы:
   Em        Cmaj7     Am7       H7+
1|---------|---------|---------|---------|
2|---------|---------|---------|---------|
3|-----0---|-----0---|-----0---|-----0---|
4|---2---2-|---2---2-|---2---2-|---1---1-|
5|---------|-3-------|-0-------|---------|
6|-0-------|---------|---------|-2-------|
Начиная с "Весна задрожав..."
1|---------|---------|---------|---------|
2|---0-0-0-|---0-0-0-|---1-1-1-|---0-0-0-|
3|---0-0-0-|---4-4-4-|---0-0-0-|---0-0-0-|
4|---2-2-2-|---2-2-2-|---2-2-2-|---1-1-1-|
5|---------|-3-------|-0-------|---------|
6|-0-------|---------|---------|-2-------|
 
 
Свернуть Распечатать

Видео