ДДТ - Расстреляли рассветами, аккорды

Прокрутка
Тональность
Шрифт
100
Мелодия в куплете:
e|--5---0-----0--3--5------0-----0--5--7--5--0---8----7--------|
B|----3----3-----------3-------3-------------------------------|
G|-------------------------------------------------------------|
D|-------------------------------------------------------------|
A|-------------------------------------------------------------|
E|-------------------------------------------------------------|

e|5-0-0-3-5-0-0-5-7-5-0-8-10-8-7-0-7-5-0-1---------------------|
B|-3-3-----3-3----------------------------3-0-------0-1-0-1-3-5|
G|--------------------------------------------0-0h2------------|
D|-------------------------------------------------------------|
A|-------------------------------------------------------------|
E|-------------------------------------------------------------|

       Am              C *                 D *  Em
Расстреляли рассветами память бредущюю в поле
    Am               C *                D *  Em
Исходили всю воду, а берега до сих пор нет
   C                                   D *  Em
Поменяли не глядя, на правду свободную волю                 
      Am               C *                 D *  Em
Да пожгли фонари не познав где кончается свет

Я не сплю моё время, как смертник скребёт по бумаге
Я в конюшне для птиц, я в плену отношений ко дну
У бездомного пса видишь больше ходячей отваги
Так подняв свою лапу он лечит больню страну
                 ЕиЕиЕ......
   Припев:
                 Am      C *      D *     Em
                  О-о-О о-О-э-ооо о-эооо о-о-о
                  О-о-О о-О-э-ооо о-эооо

Сколько веры в огне, сколько верности в тающем снеге
Так темно, я в аду иль за пазухой брата Христа
Ты бросаешь цветы на могилу, закутавшись в неге
Я лечу, как солдатики в счастье с гнилого моста

Съели жизнь в одночасье, десерт как всегда будет голод
Мы бросали слова в ROCK`n`ROLL как незрячих щенков
Рано утром в тумане теплом отражается холод
Блеск ненужных, незданных, не ценных счастливых подков
                Еиеие.....
Припев:

Я не знаю как жить, если смерть станет вдруг невозможной
Память вырвать не просто, как выбрасить песню и дождь
Имена на дверях перелитывая осторожно
Не заметишь как на пол гербарием выскользнет вождь

Раздарил всем по сердцу себе ничего не оставил
Чьи-то звёзды вокруг, а мои перекрёстки пусты
Вот и кончился пир я последним брюки заправил
Мы поклонникам вместо автографов ставим кресты

(здесь меняется тональнось)
                        Bm .... соотв.
Золотая луна цвета спелого зрелого яда
Как стрелок, за окном целит мне в оловянную грудь
Все кота по домам провожаю последнего взлядом
Твоё вечное "знаю" запомню и наше чуть-чуть
                 ЕиЕиЕ........
Припев (2 раза)
                  ЕеЕеЕеЕеееЕеЕиЕиЕ..

Гитара 1 (на 1 струне):
e|-0-3-0-5=======|8=|7-8-7-8-7-8-7-8-7-10-8|12====|13-12-10-5-7|

Гитара 2 | | | | |:
e|---------------|--|----------------------|------|------------|
B|---------------|--|----------------------|------|------------|
G|-----------0---|2=|0-2-0-2-0-2-0-2-0-----|------|------------|
D|---------2---2-----------------------0--0|2-----|3--2--0-----|
A|--------------------------------------------3-0-----------0-2|
E|-------------------------------------------------------------|

Комментарий автора:

|--0--|                       |--0--|   
|--1--|                       |--3--|   
|--2--| = C*                  |--2--| = D*   
|--3--|                       |--0--|    
|--3--|                       |--0--|     
|--0--|                       |--0--|   
 
 
Свернуть Распечатать

Видео