ДДТ - Нежность без причин, аккорды

Прокрутка
Тональность
Шрифт
100
G                                    C        G
Нежность существует без причин, как небо и стихи.
Em                            C            G
Разожги сигнальные огни, что кончилась война.
Em                                D       G
Ты танцуешь чудом по ночам - движения легки,
C                   D                G
Я радею голый от любви - душа моя полна.

Я лежу, задушенный весной, все песни о тебе,
Как всегда верха не говорят, и не хотят низа.
Проигрыш, победа и ничья гуляют по судьбе,
А за окном глотает облака Шагалова коза.

Взял и стер, что помнили глаза, оставил ближний свет.
Никакого смысла не ищи, на картах не гадай.
Ты не отвечаешь на звонки уже две ‘тыщи’ лет.
Пенится в обоях на стене наш неразделенный Рай.

Умираю каждую весной от строгого Поста,
Ангелы на крышах говорят, что будет недород.
Видел у Фонтанки на коне веселого Христа,
Он скакал по порванным осям, по точкам спелых нот.

Сколько одиночества в гостях у женщин и мужчин.
Ты рукой замерзшею сведешь хрустальные мосты.
До тебя безумно далеко, как детству до морщин,
Проигрыш, победа и ничья - движения просты.


Комментарий автора:

В начале идет проигрыш аккордом G, играется 3 раза :

[------------3--------3-----------------------------]
[--------3------3---------------3-----3-----3------]
[-----0------------0-----0--------------------------]
[----------------------------------------------------]
[----------------------------3-----2------0---------]
[-3--------------------------------------------------]

Куплет:

Нежность… G
[------------Х--------Х---------]
[--------Х------Х---------------]
[-----Х------------Х-----Х-----]
[---------------------------------]
[---------------------------------]
[-B------------------------------]

…существует… G
[------------Х--------Х---------]
[--------Х------Х---------------]
[-----Х------------Х-----Х-----]
[---------------------------------]
[-B------------------------------]
[---------------------------------]

…без причин… G
[------------Х--------Х---------]
[--------Х------Х---------------]
[-----Х------------Х-----Х-----]
[---------------------------------]
[-B------------------------------]
[---------------------------------]

…как небо… C
[------------Х--------Х---------]
[--------Х------Х---------------]
[-----Х------------Х-----Х-----]
[---------------------------------]
[-B------------------------------]
[---------------------------------]

…и стихи… G
[------------Х--------Х-----------------------------]
[--------Х------Х---------------Х-----Х-----Х----]
[-----Х------------Х-----Х-------------------------]
[------------------------------------------------------]
[-B---------------------------Х-----Х------Х------]
[------------------------------------------------------]

После каждой строчки 1 раз играется отрезок из вступления:
[------------3--------3-----------------------------]
[--------3------3---------------3-----3-----3------]
[-----0------------0-----0--------------------------]
[----------------------------------------------------]
[----------------------------3-----2------0---------]
[-3--------------------------------------------------]

Вторая и последующие строки играется абсолютно так же, просто меняются аккорды.
Главное, чтобы удар басовых струн “B” совпадал с началом произношения в песне слов (нежность, существует, причин, небо… и т.д.), чтобы соответственно на них давался акцент.
 
 
Свернуть Распечатать