ДДТ - Новая жизнь, аккорды

Прокрутка
Тональность
Шрифт
100
Am                             G                 C
Вышел из комы ночью там, где храм на крови без крова,
F                 C     E             Am
Капельницы - в клочья, жить начинаю снова.

Разлетелась вода снегом, белой ваты жую мясо,

Волчьим вещим живу бегом, небо красное - будет ясно.

Припев:
         Am          F                 C  E
 Новая жизнь разбежалась весенним ручьем,
 Новая жизнь разлилась по ларькам, по вокзалам.
 Новая жизнь посидим, помолчим ни о чем,
 Новая жизнь никогда не дается даром.

Разродилась звезда ливнем, порвала на ольхе платье,
Процарапав тайгу бивнем, воробьиную рвет ратью.
Зарастаю забытым словом на завалинке с домом-дедом,
Парюсь в бане, чтоб свежим новым для охотника стать следом.

Припев
Новая жизнь с мокрым веником да легким паром.

Хорошо бы воды холодной, он за руку меня дернул,
Я ему: "Ты чего, родный?", а он ствол достает черный.
Закричала ворона белой бессознательной злой клятвой.
Эх, убитое мое тело - все родимые мои пятна.

Припев





 		

Комментарий автора:

Вступление и первый куплет
E||---------------------------------------------------------------------||
B||------1-----1-------1-----1-----1-----3-----3--------1-------1-------||
G||----2-----2-------2-----2-----2-----2-----2--------0-------0---------||
D||---------------------------------------------------------------------||
A||--0-----0-----0-0--------------------------------3-------3-----------||
E||----------------------3-----0-----1-----1-----1----------------------||  		

E||---------------------------------------------------------------------||
B||---------1-----1-------1-----1--------0-----0-------1----------1-----||
G||-------2-----2-------2-----2--------1-----1-------2----------2-------||
D||---------------------------------------------------------------------||
A||--3----------------3-----3-----3----------------0----------0---------||
E||----1------1-----1---------------0------0-----0-------0-1------------||

Припев
E||---------------------------------------------------------------------||
B||-----1-----1-----------1-----1----------1------1---------0-----0-----||
G||---2-----2------2----2-----2-----2----0-----0------0---1-----1-----1-||
D||---------------------------------------------------------------------||
A||-0-----0-----0----------------------3-----3------3-------------------||
E||-------------------1-----1-----1---------------------0-----0-----0---||


Второй куплет
E||----------------------------------0--1---0----0------------------------------||
B||--1---0-1-1---0-1--3---1-0--1---3------1---3----1-3-1--3---1-0--1---0--1-----||
G||----2-------2--------0--------0--------------------------1--------2------2---||
D||-----------------------------------------------------------------------------||
A||--0-------0-----------------3-----------------3-----------------0------0-----||
E||-------------------1-----------------1-----------------0------------1--------|| 
 
 
Свернуть Распечатать

Видео