Led Zeppelin - Whole Lotta Love (ver 9), аккорды

Прокрутка
Тональность
Шрифт
100
!!!Corrections!!! 
Band:  Led Zeppelin 
Album: Led Zeppelin II 
Song:  Whole Lotta Love          
                                    Let the Led out!  
Jimmy Page   - Guitarist         
Robert Plant - Singer
John Bonham  - Drums
John Paul Jones - Bass

Transcribed By: Guitarzan Freak

/  - slide up to           - slide down to       
~  - vibrato             h  - hammer on         
b  - Bend                p  - pull off                           
t  - tap                 *  - see comment        
r  - release bend        x  - palm mute                                      () - ghost note, sustained note
 - Trill               o  -_
                         o  -/ Repeat (always look for these!!!)
                          
Tuning:
Guitar 1/Gtr. 1 - Standard (EADGBE)
Guitar 2/Gtr. 2 - Standard (EADGBE) 

  Intro 0:02:
E|-------------------|---------------------------------|
B|-------------------|---------------------------------|
G|o------------------|--------------------------------o|   
D|o-------------7-xx-|-7-xx-7-xx-7-xx--7-xx-7-xx-7-77-o|    
A|------3~---3~-5-xx-|-5-xx-5-xx-5-xx--5-xx-5-xx-5-55--|     
E|--3/5----5---------|---------------------------------|

  Verse 1 0:12:
E|---------------|-----------|---------------|-----------|
B|---------------|-----------|---------------|-----------|
G|---------------|-----------|---------------|-----------|
D|----------7-xx-|-7-xx-7-xx-|----------7-xx-|-7-xx-7-xx-| 
A|---3~--3~-5-xx-|-5-xx-5-xx-|---3~--3~-5-xx-|-5-xx-5-xx-|   
E|-5---5---------|-----------|-5---5---------|-----------|   
              You need coolin,            Baby I'm not foolin, 

  0:18
E|---------------|-----------|---------------|-----------|
B|---------------|-----------|---------------|-----------|
G|---------------|-----------|---------------|-----------|
D|----------7-xx-|-7-xx-7-xx-|----------7-xx-|-7-xx-7-xx-| 
A|---3~--3~-5-xx-|-5-xx-5-xx-|---3~--3~-5-xx-|-5-xx-5-xx-|   
E|-5---5---------|-----------|-5---5---------|-----------|
            I'm gonna send ya,          Back to schoolin,

  0:24
E|---------------|-----------|---------------|-----------|
B|---------------|-----------|---------------|-----------|
G|---------------|-----------|---------------|-----------|
D|----------7-xx-|-7-xx-7-xx-|----------7-xx-|-7-xx-7-xx-| 
A|---3~--3~-5-xx-|-5-xx-5-xx-|---3~--3~-5-xx-|-5-xx-5-xx-|   
E|-5---5---------|-----------|-5---5---------|-----------|
              Way down inside,            Honey you need,

  0:30
E|---------------|-----------|---------------|-----------|
B|---------------|-----------|---------------|-----------|
G|---------------|-----------|---------------|-----------|
D|----------7-xx-|-7-xx-7-xx-|----------7-xx-|-7-xx-7-xx-| 
A|---3~--3~-5-xx-|-5-xx-5-xx-|---3~--3~-5-xx-|-5-xx-5-xx-|   
E|-5---5---------|-----------|-5---5---------|-----------|
   I'm gonna give you my love, I'm gonna give you my love,    
 
  0:35
E|---------------|-----------|
B|---------------|-----------|
G|---------------|-----------|
D|----------7-xx-|-7-xx-7-xx-|
A|---3~--3~-5-xx-|-5-xx-5-xx-|
E|-5---5---------|-----------|
            Ohhhh!!! 
    Two guitars play the Chorus parts.
  Chorus 0:36 
  Guitar 2:
E|-------------------------|--------------------------|
B|-------------------------|--------------------------|
G|-7-7-7-7-7-7-7-9-----93-|-7-7-7-7-7-7-7-9------93-|
D|-7-7-7-7-7-7-7-9-----93-|-7-7-7-7-7-7-7-9------93-|  
A|-5-5-5-5-5-5-5-7-----71-|-5-5-5-5-5-5-5-7------71-| 
E|-------------------------|--------------------------|
  Wanna whole lotta love?   Wanna whole lotta love?
  
  Guitar 1:
E|---------------|-----------|---------------|-----------|
B|---------------|-----------|---------------|-----------|
G|---------------|-----------|---------------|-----------|
D|----------7-xx-|-7-xx-7-xx-|----------7-xx-|-7-xx-7-xx-| 
A|---3~--3~-5-xx-|-5-xx-5-xx-|---3~--3~-5-xx-|-5-xx-5-xx-|   
E|-5---5---------|-----------|-5---5---------|-----------|


  Chorus 0:41
  Guitar 2:
E|-------------------------|--------------------------|
B|-------------------------|--------------------------|
G|-7-7-7-7-7-7-7-9-----93-|-7-7-7-7-7-7-7-9------93-|
D|-7-7-7-7-7-7-7-9-----93-|-7-7-7-7-7-7-7-9------93-|  
A|-5-5-5-5-5-5-5-7-----71-|-5-5-5-5-5-5-5-7------71-| 
E|-------------------------|--------------------------|
  Wanna whole lotta love?   Wanna whole lotta love?
  
  Guitar 1:
E|---------------|-----------|---------------|-----------|
B|---------------|-----------|---------------|-----------|
G|---------------|-----------|---------------|-----------|
D|----------7-xx-|-7-xx-7-xx-|----------7-xx-|-7-xx-7-xx-| 
A|---3~--3~-5-xx-|-5-xx-5-xx-|---3~--3~-5-xx-|-5-xx-5-xx-|   
E|-5---5---------|-----------|-5---5---------|-----------|


  Verse 2 0:46:
E|---------------|-----------|---------------|-----------|
B|---------------|-----------|---------------|-----------|
G|---------------|-----------|---------------|-----------|
D|----------7-xx-|-7-xx-7-xx-|----------7-xx-|-7-xx-7-xx-| 
A|---3~--3~-5-xx-|-5-xx-5-xx-|---3~--3~-5-xx-|-5-xx-5-xx-|   
E|-5---5---------|-----------|-5---5---------|-----------|
            You've been learnin,      Baby I've been learnin,

  0:52
E|---------------|-----------|---------------|-----------|
B|---------------|-----------|---------------|-----------|
G|---------------|-----------|---------------|-----------|
D|----------7-xx-|-7-xx-7-xx-|----------7-xx-|-7-xx-7-xx-| 
A|---3~--3~-5-xx-|-5-xx-5-xx-|---3~--3~-5-xx-|-5-xx-5-xx-|   
E|-5---5---------|-----------|-5---5---------|-----------|
          All the good times baby,      I've been learning, 

  0:58
E|---------------|-----------|---------------|-----------|
B|---------------|-----------|---------------|-----------|
G|---------------|-----------|---------------|-----------|
D|----------7-xx-|-7-xx-7-xx-|----------7-xx-|-7-xx-7-xx-| 
A|---3~--3~-5-xx-|-5-xx-5-xx-|---3~--3~-5-xx-|-5-xx-5-xx-|   
E|-5---5---------|-----------|-5---5---------|-----------|
            Way down inside,            Honey you need I,
 
  1:04
E|---------------|-----------|---------------|-----------|
B|---------------|-----------|---------------|-----------|
G|---------------|-----------|---------------|-----------|
D|----------7-xx-|-7-xx-7-xx-|----------7-xx-|-7-xx-7-xx-| 
A|---3~--3~-5-xx-|-5-xx-5-xx-|---3~--3~-5-xx-|-5-xx-5-xx-|   
E|-5---5---------|-----------|-5---5---------|-----------|
         I'm gonna give you my love ah, I'm gonna give you my love ah,

  1:09
E|---------------|-----------|
B|---------------|-----------|
G|---------------|-----------|
D|----------7-xx-|-7-xx-7-xx-|
A|---3~--3~-5-xx-|-5-xx-5-xx-|
E|-5---5---------|-----------|
              Oh!!!

  Chorus 1:10
  Guitar 2:
E|-------------------------|--------------------------|
B|-------------------------|--------------------------|
G|-7-7-7-7-7-7-7-9-----93-|-7-7-7-7-7-7-7-9------93-|
D|-7-7-7-7-7-7-7-9-----93-|-7-7-7-7-7-7-7-9------93-|  
A|-5-5-5-5-5-5-5-7-----71-|-5-5-5-5-5-5-5-7------71-| 
E|-------------------------|--------------------------|
  Wanna whole lotta love?   Wanna whole lotta love?
  
  Guitar 1:
E|---------------|-----------|---------------|-----------|
B|---------------|-----------|---------------|-----------|
G|---------------|-----------|---------------|-----------|
D|----------7-xx-|-7-xx-7-xx-|----------7-xx-|-7-xx-7-xx-| 
A|---3~--3~-5-xx-|-5-xx-5-xx-|---3~--3~-5-xx-|-5-xx-5-xx-|   
E|-5---5---------|-----------|-5---5---------|-----------|


  Chorus 1:15
  Guitar 2:
E|-------------------------|--------------------------------|
B|-------------------------|--------------------------------|
G|-7-7-7-7-7-7-7-9-----93-|-7-7-7-7-7-7-7-9------93-|
D|-7-7-7-7-7-7-7-9-----93-|-7-7-7-7-7-7-7-9------93-|  
A|-5-5-5-5-5-5-5-7-----71-|-5-5-5-5-5-5-5-7------71-| 
E|-------------------------|--------------------------------|
  Wanna whole lotta love?   Wanna whole lotta love?
  
  Guitar 1:
E|---------------|-----------|---------------|-----------|
B|---------------|-----------|---------------|-----------|
G|---------------|-----------|---------------|-----------|
D|----------7-xx-|-7-xx-7-xx-|----------7-xx-|-7-xx-7-xx-| 
A|---3~--3~-5-xx-|-5-xx-5-xx-|---3~--3~-5-xx-|-5-xx-5-xx-|   
E|-5---5---------|-----------|-5---5---------|-----------|

   During the interlude, Page scrapes his
   pick up and down the fret board to get
   that scrape sound. 


  Solo :3:05
 Gtr. 1     Guitar 2
E|-----|   E|--------12-----------------------------|
B|-9-9-|   B|-10/12-----15-12-----------------------|
G|-9-9-|   G|-----------------15p14p12-14p12-14b16~-|
D|-9-9-|   D|---------------------------------------|
A|-7-7-|   A|---------------------------------------|
E|-----|   E|---------------------------------------|
 
  Solo 3:08
 Gtr. 1     Guitar 2       
E|-----|   E|---------------------------------|
B|-9-9-|   B|---------------------------------|
G|-9-9-|   G|-2/4—4p2-0-2p0-0-2p0-------------|
D|-9-9-|   D|---------------------2p0-2p0-----|
A|-7-7-|   A|-----------------------------2---|
E|-----|   E|-------------------------------0-|

  Solo 3:10
 Gtr. 1     Guitar 2
E|-----|   E|---------12-10b12—12-15-10-12-|  
B|-9-9-|   B|-10-12-12---------------------|
G|-9-9-|   G|------------------------------|  
D|-9-9-|   D|------------------------------|  
A|-7-7-|   A|------------------------------|  
E|-----|   E|------------------------------|  

  Solo 3:13
 Gtr. 1     Guitar 2
E|-----|   E|-12-15b19r15-12----15p12-|
B|-9-9-|   B|----------------14-------|
G|-9-9-|   G|-------------------------|
D|-9-9-|   D|-------------------------|
A|-7-7-|   A|-------------------------|
E|-----|   E|-------------------------|

  Solo 3:16
 Gtr. 1     Guitar 2
E|-----|   E|---19b21-19-18-17-15----15----|
B|-9-9-|   B|-17------------------17----17-|
G|-9-9-|   G|------------------------------|
D|-9-9-|   D|------------------------------|
A|-7-7-|   A|------------------------------|
E|-----|   E|------------------------------|

  Solo 3:19
  Gtr.1     Guitar 2
E|-----|   E|-------------------17-15----15--------|
B|-9-9-|   B|-17-19-19b21-19b21-------17------175-|     
G|-9-9-|   G|--------------------------------------|
D|-9-9-|   D|--------------------------------------|
A|-7-7-|   A|--------------------------------------|
E|-----|   E|--------------------------------------|

  Verse 3 3:22:
E|---------------|-----------|---------------|-----------|
B|---------------|-----------|---------------|-----------|
G|---------------|-----------|---------------|-----------|
D|----------7-xx-|-7-xx-7-xx-|----------7-xx-|-7-xx-7-xx-| 
A|---3~--3~-5-xx-|-5-xx-5-xx-|---3~--3~-5-xx-|-5-xx-5-xx-|   
E|-5---5---------|-----------|-5---5---------|-----------|
          You've been coolin,      Baby I've been droolin, 

  3:28
E|---------------|-----------|---------------|-----------|
B|---------------|-----------|---------------|-----------|
G|---------------|-----------|---------------|-----------|
D|----------7-xx-|-7-xx-7-xx-|----------7-xx-|-7-xx-7-xx-| 
A|---3~--3~-5-xx-|-5-xx-5-xx-|---3~--3~-5-xx-|-5-xx-5-xx-|   
E|-5---5---------|-----------|-5---5---------|-----------|
              All the good times baby I've been misusin,

  3:32
E|---------------|-----------|---------------|-----------|
B|---------------|-----------|---------------|-----------|
G|---------------|-----------|---------------|-----------|
D|----------7-xx-|-7-xx-7-xx-|----------7-xx-|-7-xx-7-xx-| 
A|---3~--3~-5-xx-|-5-xx-5-xx-|---3~--3~-5-xx-|-5-xx-5-xx-|   
E|-5---5---------|-----------|-5---5---------|-----------|
            A way, way down inside, I wanna give you my love, 

  3:37
E|---------------|-----------|---------------|-----------|
B|---------------|-----------|---------------|-----------|
G|---------------|-----------|---------------|-----------|
D|----------7-xx-|-7-xx-7-xx-|----------7-xx-|-7-xx-7-xx-| 
A|---3~--3~-5-xx-|-5-xx-5-xx-|---3~--3~-5-xx-|-5-xx-5-xx-|   
E|-5---5---------|-----------|-5---5---------|-----------|
            I'm gonna give ya every inch of my love,

  3:40:
E|---------------|-----------|---------------|-----------|
B|---------------|-----------|---------------|-----------|
G|---------------|-----------|---------------|-----------|
D|----------7-xx-|-7-xx-7-xx-|----------7-xx-|-7-xx-7-xx-| 
A|---3~--3~-5-xx-|-5-xx-5-xx-|---3~--3~-5-xx-|-5-xx-5-xx-|   
E|-5---5---------|-----------|-5---5---------|-----------|
                          Gonna give ya my love       

  3:43
E|---------------|-----------|---------------|-----------|
B|---------------|-----------|---------------|-----------|
G|---------------|-----------|---------------|-----------|
D|----------7-xx-|-7-xx-7-xx-|----------7-xx-|-7-xx-7-xx-| 
A|---3~--3~-5-xx-|-5-xx-5-xx-|---3~--3~-5-xx-|-5-xx-5-xx-|   
E|-5---5---------|-----------|-5---5---------|-----------|
             Yeah,                       alright let's go!
 
  3:48
E|---------------|-----------|
B|---------------|-----------|
G|---------------|-----------|
D|----------7-xx-|-7-xx-7-xx-|
A|---3~--3~-5-xx-|-5-xx-5-xx-|
E|-5---5---------|-----------|

Chorus 3:50
Guitar 2:
E|-------------------------|--------------------------|
B|-------------------------|--------------------------|
G|-7-7-7-7-7-7-7-9-----93-|-7-7-7-7-7-7-7-9------93-|
D|-7-7-7-7-7-7-7-9-----93-|-7-7-7-7-7-7-7-9------93-|  
A|-5-5-5-5-5-5-5-7-----71-|-5-5-5-5-5-5-5-7------71-| 
E|-------------------------|--------------------------|
  Wanna whole lotta love?   Wanna whole lotta love?
  
  Guitar 1:
E|---------------|-----------|---------------|-----------|
B|---------------|-----------|---------------|-----------|
G|---------------|-----------|---------------|-----------|
D|----------7-xx-|-7-xx-7-xx-|----------7-xx-|-7-xx-7-xx-| 
A|---3~--3~-5-xx-|-5-xx-5-xx-|---3~--3~-5-xx-|-5-xx-5-xx-|   
E|-5---5---------|-----------|-5---5---------|-----------|


  Chorus 3:55
  Guitar 2:
E|-------------------------|--------------------------------|
B|-------------------------|--------------------------------|
G|-7-7-7-7-7-7-7-9-----93-|-7-7-7-7-7-7-7-9------93-|
D|-7-7-7-7-7-7-7-9-----93-|-7-7-7-7-7-7-7-9------93-|  
A|-5-5-5-5-5-5-5-7-----71-|-5-5-5-5-5-5-5-7------71-| 
E|-------------------------|--------------------------------|
  Wanna whole lotta love?   Wanna whole lotta love?
  
  Guitar 1:
E|---------------|-----------|---------------|-----------|
B|---------------|-----------|---------------|-----------|
G|---------------|-----------|---------------|-----------|
D|----------7-xx-|-7-xx-7-xx-|----------7-xx-|-7-xx-7-xx-| 
A|---3~--3~-5-xx-|-5-xx-5-xx-|---3~--3~-5-xx-|-5-xx-5-xx-|   
E|-5---5---------|-----------|-5---5---------|-----------|

The band stops at around 4:01 then Plant says:

  4:05
Plant: Way down inside! Woman, you need, (play these chords!)  

  4:16
E|-----| 
B|-8---|  Then Plant says: Loooooooooooooovvvvvvveeeeee!!!
G|-9-6-|
D|-9-7-|
A|-7-7-|
E|---5-|

  4:28
E|---------------|-----------|---------------|-----------|
B|---------------|-----------|---------------|-----------|
G|---------------|-----------|---------------|-----------|
D|----------7-xx-|-7-xx-7-xx-|----------7-xx-|-7-xx-7-xx-| 
A|---3~--3~-5-xx-|-5-xx-5-xx-|---3~--3~-5-xx-|-5-xx-5-xx-|   
E|-5---5---------|-----------|-5---5---------|-----------|   
 

  4:32
E|---------------|-----------|---------------|-----------|
B|---------------|-----------|---------------|-----------|
G|---------------|-----------|---------------|-----------|
D|----------7-xx-|-7-xx-7-xx-|----------7-xx-|-7-xx-7-xx-| 
A|---3~--3~-5-xx-|-5-xx-5-xx-|---3~--3~-5-xx-|-5-xx-5-xx-|   
E|-5---5---------|-----------|-5---5---------|-----------|
  Ma, ma, ma, ma!!!            Ma, ma, ma, ma!!!       
   
  4:36
E|---------------|-----------|---------------|-----------|
B|---------------|-----------|---------------|-----------|
G|---------------|-----------|---------------|-----------|
D|----------7-xx-|-7-xx-7-xx-|----------7-xx-|-7-xx-7-xx-| 
A|---3~--3~-5-xx-|-5-xx-5-xx-|---3~--3~-5-xx-|-5-xx-5-xx-|   
E|-5---5---------|-----------|-5---5---------|-----------|
                        Oohh!            

  4:40
E|---------------|-----------|---------------|-----------|
B|---------------|-----------|---------------|-----------|
G|---------------|-----------|---------------|-----------|
D|----------7-xx-|-7-xx-7-xx-|----------7-xx-|-7-xx-7-xx-| 
A|---3~--3~-5-xx-|-5-xx-5-xx-|---3~--3~-5-xx-|-5-xx-5-xx-|   
E|-5---5---------|-----------|-5---5---------|-----------|

  4:44
E|---------------|-----------|---------------|-----------|
B|---------------|-----------|---------------|-----------|
G|---------------|-----------|---------------|-----------|
D|----------7-xx-|-7-xx-7-xx-|----------7-xx-|-7-xx-7-xx-| 
A|---3~--3~-5-xx-|-5-xx-5-xx-|---3~--3~-5-xx-|-5-xx-5-xx-|   
E|-5---5---------|-----------|-5---5---------|-----------|   
            Shake for me girl,

  4:48
E|---------------|-----------|---------------|-----------|
B|---------------|-----------|---------------|-----------|
G|---------------|-----------|---------------|-----------|
D|----------7-xx-|-7-xx-7-xx-|----------7-xx-|-7-xx-7-xx-| 
A|---3~--3~-5-xx-|-5-xx-5-xx-|---3~--3~-5-xx-|-5-xx-5-xx-|   
E|-5---5---------|-----------|-5---5---------|-----------|
           I wanna be your back door man,   Hey! Oh! Hey!

  4:52
E|---------------|-----------|---------------|-----------|
B|---------------|-----------|---------------|-----------|
G|---------------|-----------|---------------|-----------|
D|----------7-xx-|-7-xx-7-xx-|----------7-xx-|-7-xx-7-xx-| 
A|---3~--3~-5-xx-|-5-xx-5-xx-|---3~--3~-5-xx-|-5-xx-5-xx-|   
E|-5---5---------|-----------|-5---5---------|-----------|
    Oh! Hey! Oh!                     Hey! Oh! Hey!

  4:56
E|---------------|-----------|---------------|-----------|
B|---------------|-----------|---------------|-----------|
G|---------------|-----------|---------------|-----------|
D|----------7-xx-|-7-xx-7-xx-|----------7-xx-|-7-xx-7-xx-| 
A|---3~--3~-5-xx-|-5-xx-5-xx-|---3~--3~-5-xx-|-5-xx-5-xx-|   
E|-5---5---------|-----------|-5---5---------|-----------|
                              Oooooooooooooooooooooooo
  5:00
E|---------------|-----------|---------------|-----------|
B|---------------|-----------|---------------|-----------|
G|---------------|-----------|---------------|-----------|
D|----------7-xx-|-7-xx-7-xx-|----------7-xx-|-7-xx-7-xx-| 
A|---3~--3~-5-xx-|-5-xx-5-xx-|---3~--3~-5-xx-|-5-xx-5-xx-|   
E|-5---5---------|-----------|-5---5---------|-----------|   
  hhhhhhhhhhhhhhhhhhhhhhhhhhhhhhhhhhhhhhhhhhhhhhhhhhhh!!!

  5:04
E|---------------|-----------|---------------|-----------|
B|---------------|-----------|---------------|-----------|
G|---------------|-----------|---------------|-----------|
D|----------7-xx-|-7-xx-7-xx-|----------7-xx-|-7-xx-7-xx-| 
A|---3~--3~-5-xx-|-5-xx-5-xx-|---3~--3~-5-xx-|-5-xx-5-xx-|   
E|-5---5---------|-----------|-5---5---------|-----------|
         Oh!          Oh!            Oh!          Oh!

  5:08
E|---------------|-----------|---------------|-----------|
B|---------------|-----------|---------------|-----------|
G|---------------|-----------|---------------|-----------|
D|----------7-xx-|-7-xx-7-xx-|----------7-xx-|-7-xx-7-xx-| 
A|---3~--3~-5-xx-|-5-xx-5-xx-|---3~--3~-5-xx-|-5-xx-5-xx-|   
E|-5---5---------|-----------|-5---5---------|-----------|
             Hippa    koomba,              my   babe!!!       

  5:12
E|---------------|-----------|---------------|-----------|
B|---------------|-----------|---------------|-----------|
G|---------------|-----------|---------------|-----------|
D|----------7-xx-|-7-xx-7-xx-|----------7-xx-|-7-xx-7-xx-| 
A|---3~--3~-5-xx-|-5-xx-5-xx-|---3~--3~-5-xx-|-5-xx-5-xx-|   
E|-5---5---------|-----------|-5---5---------|-----------|
                                I keep it cool baby!!!

  5:16
E|---------------|-----------|---------------|-----------|
B|---------------|-----------|---------------|-----------|
G|---------------|-----------|---------------|-----------|
D|----------7-xx-|-7-xx-7-xx-|----------7-xx-|-7-xx-7-xx-| 
A|---3~--3~-5-xx-|-5-xx-5-xx-|---3~--3~-5-xx-|-5-xx-5-xx-|   
E|-5---5---------|-----------|-5---5---------|-----------|   
            I keep it cool baby!!!  I keep it cool baby!!!

  5:20
E|---------------|-----------|---------------|-----------|
B|---------------|-----------|---------------|-----------|
G|---------------|-----------|---------------|-----------|
D|----------7-xx-|-7-xx-7-xx-|----------7-xx-|-7-xx-7-xx-| 
A|---3~--3~-5-xx-|-5-xx-5-xx-|---3~--3~-5-xx-|-5-xx-5-xx-|   
E|-5---5---------|-----------|-5---5---------|-----------|
         I keep it cool baby!!!       A wahooooooooooooooo

  5:24
E|---------------|-----------|---------------|-----------|
B|---------------|-----------|---------------|-----------|
G|---------------|-----------|---------------|-----------|
D|----------7-xx-|-7-xx-7-xx-|----------7-xx-|-7-xx-7-xx-| 
A|---3~--3~-5-xx-|-5-xx-5-xx-|---3~--3~-5-xx-|-5-xx-5-xx-|   
E|-5---5---------|-----------|-5---5---------|-----------|
  oooooooooooooooooooooooooooooooooooooooooooooooooooooo

**5:28**
E|---------------|-----------|---------------|-----------|
B|---------------|-----------|---------------|-----------| 
G|---------------|-----------|---------------|-----------| **Fades out...** 
D|----------7-xx-|-7-xx-7-xx-|----------7-xx-|-7-xx-7-xx-| 
A|---3~--3~-5-xx-|-5-xx-5-xx-|---3~--3~-5-xx-|-5-xx-5-xx-|   
E|-5---5---------|-----------|-5---5---------|-----------|
  Ooooooooooooooooooooooooooooooooooooooooooooooooooooooo

  5:32
E|---------------|-----------|---------------|-----------|
B|---------------|-----------|---------------|-----------| 
G|---------------|-----------|---------------|-----------| Fade out...
D|----------7-xx-|-7-xx-7-xx-|----------7-xx-|-7-xx-7-xx-| 
A|---3~--3~-5-xx-|-5-xx-5-xx-|---3~--3~-5-xx-|-5-xx-5-xx-|   
E|-5---5---------|-----------|-5---5---------|-----------|
  Ooooooooooooooooooooooooooooooooooooooo!!!!!!!!!!!!!!!!!

 Song Progression:
 Intro            x2
 Verse            x9
 Chorus           x4 
 Verse            x9
 Chorus           x4
 Solo             x1                 
 Verse            x12
 Chorus           x4
 Chords           x1
 Verse            x32
 
 
Свернуть Распечатать