Любэ - Ты неси меня, река, аккорды

Прокрутка
Тональность
Шрифт
100
|-0--------------1----1-----0---0------3----3----0
|-1--------------1-1-----1--1-1-----1--0-0----0--1
|-2------------0-2---2-2--0-0--0--0--0-0---0-0-0-2
|-2--------0-2---3----------2----------0---------2
|-0--0-2-3-------3----------3----------2---------0
|-0--------------1----------3----------3---------0
 ты неси меня река       за крутые берега
(где поля)
 где поля мои поля (где леса) где леса мои леса
(ты неси)
 ты неси меня река       да в родные мне места
|-0--------------1---1-----0~----------0
|-1--------------1-1----1--0~----------1
|-2------------0-2--2-2--0-1~----------2
|-2------0-2-----3---------2~----------2
|-0-0-2-3---0-0--3---------2~----------0
|-0--------------1---------0~----------0
(где живет)
 где живет моя моя краса     голубые у нее
глаза
 
Припев:
F  C   E  Am
как ночка темная
F  C   E  Am
как речка быстрая
   G Dm E7 Am
как одинокая луна
  F   Dm   E7  Am
на небе ждет меня она

Следующий куплет играется аналогично первому.

Далее проигрыш (после 2 припева)
|-0-0-3-3-1-0--0--0-0-------1--------(0)-0  
|-1-----0----3-1-1--0-3-1-0-1--1---3-----1   

|-0-----0------2----0-------2-2---4------0

|-2-----0------2----2-------3------------2
/  играть 2 раза
|-3-----2------0----2-------3------------3
/
|-3-----3------0----0-------1------------3   /

C  G     Am   Em      F  G
ты неси меня река за крутые берега -2раза

ПРИПЕВ.
 
 
Свернуть Распечатать

Видео