Любэ - Нас не накроют флагом военным (к/ф "Офицеры"), аккорды

Прокрутка
Тональность
Шрифт
100
Вступление:
1-7-5-|-----|--------------------------||---------|---------------|---------|-------------|-------
2-----|-8-7-|--------7-8-7-------------||---------|---------------|---------|-------------|-------
3-----|-----|--9-8-9-------9------11-9-||-------4-|---------0-5-4-|-----2-4-|-4-2-1-2-4-5-|-------
4-----|-----|----------------10-9------||-2-4-5---|-5-4-2-4-------|-4-5-----|-------------|-7-9-10

1-----|-------------|---------||
2-----|-------------|---------||
3-9-9-|--------11-9-|-9-7-----||
4-----|-7-9-10------|-----10-9||

1 куплет ||переход в припев||:
1-7--3-|-2----|-7--4-|-0----|-7--5-|-(5)--(7)-|-----|------||-7--2-||
2-8--5-|-4--4-|-9--5-|-1--1-|------|----------|-7---|------||-8--4-||
3-9--4-|-4--4-|-9--4-|-2--2-|------|----------|---6-|--(8)-||-9--4-||
4------|----4-|------|----2-|------|----------|-----|------||------||

Мост (конец 1 припева):
1-----7-10----|
2-7-8---------|
3-------------|
4-------------|

Мост (конец 2 куплета):
1---------|---------|----------|-4-5-7-|
2-------7-|-------9-|-------10-|-6-7-9-|
3-7-6-7 --|-7-6-7---|-8-7-8----|-------|
4---------|---------|----------|-------|

Мост (конец 2 припева)
1---------14-|
2-7p10-10----|
3------------|
4------------|

Соло (после 2 припева)
1----------|---------------|---------|-------------|---------|------------|-------------|----------|
2----------|---------------|---------|-------------|-------9-|-------11-9-|-------12-11-|-9-8-9-11-|
3--------8-|-----------9-8-|-----6-8-|-8-6-5-6-8-9-|-6-8-9---|-6-8-9------|-6-8-9-------|----------|
4-6-8-9----|-9-8-6-8-9-----|-8-9-----|-------------|---------|------------|-------------|----------|

Кода:
1---11-9-|---------|----------------------------------|
2--------|---12-11-|----------11-12-11----------------|
3-8------|-8-------|-13-12-13----------13-------15-13-|
4--------|---------|----------------------14-13-------|


Вступление:  Em | B/F# | Em/G | B 
             (C) Am/C | G/B | B | Em 6-4-3-4-2-4-3-4

1 куплет: бас-3-2-3-1-3-2-3
        Em/E (B)          B/B (F#)
Наших имён не запомнит Россия 
        E/E (E)          Am/A 5-3-2-3-1-2-3-2
Наши следы заметелят снега 
         Am/A (C)      Am/A (E)
Годы последние пороховые 
         Am/F# (E)     B
Грянет салютом пуля врага 

1 припев: бас+1-3-2-3-бас+1-3-2-3
Em (затакт) B (B/F#)     Em (E/E) 
Нас не накроют флагом военным, 
          B (B/F#)       Em (E/E) 
Не прозвенит над нами салют, 
            B  E         Am/A (G/F#) басовый ход
Разве что в небе вечном, нетленном 
        Em    B     Em 6-3-2-3-4+3+2+1
Ангелы Божьи нас отпоют.

2 куплет: бас-3-2-3-1-3-2-3
            F#m (F#/F#)   C# (C#/G#)
Нет, не закроет холмик могильный
        F# (F#/F#)      Bm
Наши надежды и наши сердца.
          Bm (B/A)       Bm (G#/F#)
Господи Славный, Боже Всесильный,
         G# (G#/D#)       C# 5+3+2+1
Дай за Тобою пройти до конца.

2 припев: бас+1-3-2-3-бас+1-3-2-3
F#m (затакт) C# (C#/G#)  F#m (F#/F#)
Нас не накроют флагом военным,
         C# (C#/G#)   F#m (F#/F#)
Не прозвенит над нами салют,
             C#   F#         Bm (A/G#) басовый ход
Разве что в небе вечном, нетленном
       F#m   C#     F#m 6-3-2-3-5+4+3+2+1
Ангелы Божьи нас отпоют.
 
Соло: G#m  |D# | G# | C#m | C#m (C#/B/A#/G#) | Bb |D#

3 припев: бас+1-3-2-3-бас+1-3-2-3
G#m (затакт) D# (D#/D#)  G#m (G#/D#)
Нас не накроют флагом военным,
          D# (D#/D#)    G#m (G#/D#)
Не прозвенит над нами салют,
             D#  G#       C#m (B/A#) басовый ход
Разве что в небе вечном, нетленном
        G#m   D#    G#m 
Ангелы Божьи нас отпоют.
            D#   G#        C#m 6+1-3-2-3-4+3+2+1
Разве что в небе вечном, нетленном
       G#m   D#     G#m (начинается кода)
Ангелы Божьи нас отпоют. 

Кода: G#m | D# | G#m | D# | C#mE | * | D# | G#m

*Аккорд в коде
1---------
2-----4---
3---4---4-
4---------
5-6-------
6---------

Комментарий автора:

Разобраться трудно, но можно. Делал для себя, но решил поделиться.
Рядом с аккордами в скобках чередующийся бас. Там же можно найти, 
каким перебором играть в разных куплетах. 
Внимательно слушайте оригинал, чтобы понять музыку.
 
 
Свернуть Распечатать