Народные и застольные песни - Каким ты был, аккорды

Прокрутка
Тональность
Шрифт
100
E|-----------------------------|------------------------|
B|-----------------------------|------------------------|
G|-----------------------------|----------2-----0-------|
D|----0-------------3--2p0-2---|-------2------2---3p2-0-|
A|-0-----3p2-0---0-----------0-|-0--3-------------------|
E|-----------------------------|------------------------|

E|-------------------------------|--------------------|
B|-------------------------------|--------------------|
G|----3-2--------3-3--2--1--2----|-2-0----------------|
D|-0-------0--0----------------0-|-----3-2----0-------|
A|-------------------------------|----------3---3p2-0-|
E|-------------------------------|--------------------|
 
Dm        Am    Dm     Am
Каким ты был, таким остался,
               A7       Dm
Орел степной, казак лихой!..
  A7      Dm     Gm    A7      Dm
Зачем, зачем ты снова повстречался,   
 Dm6    Am     E7    E  Am                 
Зачем нарушил мой покой?              

Зачем опять в своих утратах
Меня хотел ты обвинить?
В одном, в одном я только виновата,
Что нету сил тебя забыть.

Свою судьбу с твоей судьбою
Пускай связать я не могла,
Но я жила, жила одним тобою,
Я всю войну тебя ждала.

Ждала, когда наступит сроки,
Когда вернешься ты домой…
И горьки мне, горьки твои упреки,
Горячий мой, упрямый мой!

Твоя печаль, твоя обида,
Твоя тревога ни к чему:
Смотри, смотри, душа моя открыта,
Тебе открыта одному.

Но ты взглянуть не догадался,
Умчался вдаль, казак лихой…
Каким ты был, Таким ты и остался,
Но ты и дорог мне такой.
 
 
Свернуть Распечатать

Видео