Народные и застольные песни - Зелёные рукава (Greensleeves), аккорды

Прокрутка
Тональность
Шрифт
100
Posted by LickN'Riff:

Часть 1
     Am   G/B  C         G/B   G6  Amsus2  Am               E    
E||-------|---|-0-|-1p0-|---|-----|------|---|----------|-------||
B||-----1-|-3-|-1-|-----|-3-|-0---|---0--|-1-|----------|-0-----||
G||-2-----|-0-|-0-|-----|-0-|---0-|--2---|---|-2-2--1/2-|---1---||
D||-------|---|---|-----|---|-----|------|---|----------|-----2-||
A||-----0-|-2-|-3-|-----|---|-----|------|-0-|----------|-------||
E||-------|---|---|-----|-3-|-----|------|---|----------|-0-----||

     Am    G/B  C        G/B   G6  Amsus2  Am  Amsus2  E          Am
E||-------|---|-0-|-1p0-|---|-----|------|---|-------|---|------|---||
B||-----1-|-3-|-1-|-----|-3-|-0---|---0--|-1-|--0----|---|------|---||
G||-2-----|-0-|-0-|-----|-0-|---0-|--2---|---|----2--|-1-|----1-|-2-||
D||-------|---|---|-----|---|-----|------|---|-------|---|-4----|---||
A||-----0-|-2-|-3-|-----|---|-----|------|-0-|-------|---|------|-0-||
E||-------|---|---|-----|-3-|-----|------|---|-------|-0-|------|---||

Часть 2
       C           G/B   G6  Amsus2  Am               E  
E||-3---3-3-|-2p0-|---|-----|------|---|----------|-------||
B||-1-----1-|-----|-3-|-0---|---0--|-1-|----------|-0-----||
G||-0-----0-|-----|-0-|---0-|--2---|---|-2-2--1/2-|---1---||
D||---------|-----|---|-----|------|---|----------|-----2-||
A||-3-----3-|-----|---|-----|------|-0-|----------|-------||
E||---------|-----|-3-|-----|------|---|----------|-0-----||

       C           G/B  G6  Amsus2  Am  Amsus2  E           Am     Am(V)
E||-3---3-3-|-2p0-|---|----|------|---|-------|---|------|-----0-|--5--||
B||-1-----1-|-----|-3-|0---|---0--|-1-|--0----|---|------|---1---|--5--||
G||-0-----0-|-----|-0-|--0-|--2---|---|----2--|-1-|----1-|-2-----|--5--||
D||---------|-----|---|----|------|---|-------|---|-4----|-------|-----||
A||-3-----3-|-----|---|----|------|-0-|-------|---|------|-0-----|--0--||
E||---------|-----|-3-|----|------|---|-------|-0-|------|-------|-----||


     Аккорд           Аккорд          Аккорд
     Amsus2            G/B              C 

E||---|---|---| E||---|---|---| E||---|---|-О-|
B||---|---|---| B||---|---|-О-| B||-О-|---|---|
G||---|-О-|---| G||---|---|---| G||---|---|---|
D||---|-О-|---| D||---|---|---| D||---|-О-|---|
A||---|---|---| A||---|-О-|---| A||---|---|-О-|
E||---|---|---| E||---|---|-О-| E||---|---|---|

Simple version:

Часть 1

E||---1-3-5-7-5-7-5-3-0-----0-1---------0-----||
B||-3-------------------1-3-----3-3-2-3---2---||
G||-----------------------------------------2-||
D||-------------------------------------------||
A||-------------------------------------------||
E||-------------------------------------------||

E||---1-3-5-7-5-7-5-3-0-----0-1-0-------------0-1-0---||
B||-3-------------------1-3-------3-2-0-2-3-3-------3-||
G||---------------------------------------------------||
D||---------------------------------------------------||
A||---------------------------------------------------||
E||---------------------------------------------------||

Часть 2

E||-8-8-8-7-5-7-5-3-0-----0-1---------0-----||
B||-------------------1-3-----3-3-2-3---2---||
G||---------------------------------------2-||
D||-----------------------------------------||
A||-----------------------------------------||
E||-----------------------------------------||

E||-8-8-8-7-5-7-5-3-0-----0-1-0-------------0-1-0---||
B||-------------------1-3-------3-2-0-2-3-3-------3-||
G||-------------------------------------------------||
D||-------------------------------------------------||
A||-------------------------------------------------||
E||-------------------------------------------------||

Комментарий автора:

Первая версия опубликована LickN'Riff на сайте www.licknriff.com
 
 
Свернуть Распечатать

Видео