Наутилус Помпилиус - Прогулки по воде, аккорды

Прокрутка
Тональность
Шрифт
100
Музыка - Вячеслав Бутусов.
Слова - Илья Кормильцев.

Вступление:

   Em                                  H7
e|-7--7--7-----------7--7--7-----7-----5--5--5-----------5--5--5-----5-----| \
H|-8--------8--8--8-----------8-----8--7--------7--7--7-----------7-----7--|  \
G|-9-----------------------------------8-----------------------------------|   \
                                                                                \  2
   Am                                  Em                                       / раза
e|-5--5--5-----------5--5--5-----5-----------------------------------7-----|   /
H|-5--------5--5--5-----------5-----5--8--8--8--8--7--5--8--8--8--8-----8--|  /
G|-5-----------------------------------------------------------------------| /

   G                 D                 Am                Em
e|-7-----7h8------10-10---8-5--------5-----8--8---5--------------------|
H|-8-----------------------------------5-----------------8--5------------|
G|-7-----------------------------------5-----------------------------------|
D|-5-----------------------------------7-----------------------------------|

   G                 D                 H7                H-9     (H7)
e|----7-----7--------------------------------------------------------------|
H|-8-----8-----------------10----10--------10---10---10-----7-----7----(7)-|
G|-------------------12----11-------------(11)-------------(8)---(8)----|
D|-------------------------------------10--------10----9---------------|

   G                 D                 Am                Em
e|-7-----7h8------10-10---8-5--------5-----8--8---5--------------------|
H|-8-----------------------------------5-----------------8--5------------|
G|-7-----------------------------------5-----------------------------------|
D|-5-----------------------------------7-----------------------------------|

   G                 D                 H7                H-9
e|----7-----7-----------------------------------------------------5--------|
H|-8-----8-----------------10----10--------10---10-------------7-----------|
G|-------------------12----11-------------(11)-----------8--------------|
D|-------------------------------------10--------------7-----------------|

   H-9               H7
e|------(5)-8----(5)----5-----5--------------------------------------------|
H|----7--------7-----7-----7-----7-----7-----------------------------------|
G|-8-------------------------------(8)-------------------------------------|
D|-------------------------------------------------------------------------|

      Em
С причала рыбачил апостол Андрей,
      H7
А Спаситель ходил по воде.
      Am
И Андрей доставал из воды пескарей,
      Em
А Спаситель погибших людей.

И Андрей закричал: "Я покину причал,
Если ты мне откроешь секрет!"
А Спаситель ответил: "Спокойно, Андрей!
Никакого секрета здесь нет...

	   G                D
	  Видишь, там на горе
	Am              Em
	  Возвышается крест:
	       G                D
	  Под ним - десяток солдат,
	H7              H-9 H7
	  Повиси-ка на не - ем...
	G             D
	  А когда надоест,
	Am               Em
	  Возвращайся назад
	     C               G
	  Гулять по воде, гулять по воде,
	     D                H-9 H7
	  Гулять по воде со мно - ой..."

Проигрыш:

G | D | Am | Em | G | D | H7 | H-9 H7

G | D | Am | Em | C | G | D  | H7 | H-9 | H7

- Но Учитель, на касках блистают рога
Черный ворон кружит над крестом
Объясни мне сейчас пожалей дурака
А распятье оставь на потом

Онемел Спаситель и топнул в сердцах
По водной глади ногой
- Ты и верно дурак! - и Андрей в слезах
Побрел с пескарями домой

	  Припев 2 раза.

Кода:

   Em                                  H7
e|-7--7--7-----------7--7--7-----7-----5--5--5-----------5--5--5-----5-----| \
H|-8--------8--8--8-----------8-----8--7--------7--7--7-----------7-----7--|  \
G|-9-----------------------------------8-----------------------------------|   \
                                                                                \  2
   Am                                  Em                                       / раза
e|-5--5--5-----------5--5--5-----5-----------------------------------7-----|   /
H|-5--------5--5--5-----------5-----5--8--8--8--8--7--5--8--8--8--8-----8--|  /
G|-5-----------------------------------------------------------------------| /

   Em
e|-7-----------------|
H|-8-----------------|
G|-9-----------------|

Комментарий автора:

1). Используемые апликатуры:
H7  = x21202
H-9 = x21212

2). Строчка \"Гулять по воде со мной\" в последнем случае обыгрывается следующим образом: D  | H7 | H-9 | H7
 
 
Свернуть Распечатать

Видео