Песни из кино и мультфильмов - Тема из к/ф "Star Wars", аккорды

Прокрутка
Тональность
Шрифт
100
[e------------------3---------3------------
B----------3-1-0-----3-1-0-----3-1-0-1----
G--------0-------2---------2-----------2-- } repeat
D--0-0-0----------------------------------
A-----------------------------------------
E-----------------------------------------

e --------------------------------------------------
B ---------1-0--------------------------1-0-----3---
G -------------2-0-0-2-4-2------------------2-0---2-
D -0-0-2-2-----------------2-4--0-0-2-2-------------
A --------------------------------------------------
E --------------------------------------------------

e-----------------------------------3-1----------------
B-------------------------------3-3-----4-3-1-0-----3--
G----------1-0----------------------------------2-0----
D--------------2-0-0-2-4-2-----------------------------
A--0-0-2-2-----------------2-4-------------------------
E------------------------------------------------------]
 
 

Видео