Песни из кино и мультфильмов - Песня о далёкой родине (к/ф "Семнадцать мгновений весны"), аккорды

Прокрутка
Тональность
Шрифт
100
Я прошу, лишь не надо слез...
[e---9-0-0--7-5-7-------7------5-3-5-------5------5-4-5----------
B----------------6-5-----5-5--------4-3-----3-3--------2-1------
G---------------------------------------------------------------
D---------------------------------------------------------------
A---------------------------------------------------------------
E---------------------------------------------------------------

e-------0-1-1-0---------0---------------------------------------
B---3-5--------5-5-3--3---5-3-1-0-3-1---------------------------
G---------------------------------------------------------------
D---------------------------------------------------------------
A---------------------------------------------------------------
E---------------------------------------------------------------

e---9-0-0--7-5-7-------7------5-3-5-------5------5-4-5----------
B----------------6-5-----5-5--------4-3-----3-3--------2-1------
G---------------------------------------------------------------
D---------------------------------------------------------------
A---------------------------------------------------------------
E---------------------------------------------------------------

e-------0-1-1-0---------0---------------------------------------
B---3-5--------5-5-3--3---5-3-1-0-3-1-0-------------------------
G---------------------------------------------------------------
D---------------------------------------------------------------
A---------------------------------------------------------------
E---------------------------------------------------------------]
 
Припев:		
[e---0-1-3-5-6-0-1-3-5-7--7-5-3-6-5-3-5-----0-1-3-5---0-1-3-5----
B----------------------------------------3---------3------------
G---------------------------------------------------------------
D---------------------------------------------------------------
A---------------------------------------------------------------
E---------------------------------------------------------------

e---5-3-1-5-3-1-1-0---0---0-1-3-5-6-0-1-3-5-7--7-5-3-6-5-3-5----
B-------------------3-------------------------------------------
G---------------------------------------------------------------
D---------------------------------------------------------------
A---------------------------------------------------------------
E---------------------------------------------------------------

e---5-9-7---9-7--6-9-7-1-9-7-1-9-7------------------------------
B---------6-----------------------------------------------------
G---------------------------------------------------------------
D---------------------------------------------------------------
A---------------------------------------------------------------
E---------------------------------------------------------------]
 
 

Видео