Песни из кино и мультфильмов - Тема из к/ф "Бригада", аккорды

Прокрутка
Тональность
Шрифт
100
E ----------------------------------------------------------------
B ----------------------------------------------------------------
G ----------------------------------------------------------------
D |---7-5-8-7--7--5-7-8-7------------5----------------------------
A |-5-----------8---------3----5-7-8---8-5---5-8-7-5-3-5----------
E ----------------------------------------------------------------

E ----------------------------------------------------------------
B ----------------------------------------------------------------
G ----------------------------------------------------------------
D |---7-5-8-7--7--5-7-8-7-------7-5-8-7-5-------------------------
A |-5-----------8-----------5-5------------8-7-8-3----------------
E ----------------------------------------------------------------
 
 

Видео