Песни из кино и мультфильмов - Мелодия из к/ф "Сваты", аккорды

Прокрутка
Тональность
Шрифт
100
Cm Gm  
E-------------------------------2---------------  
B--5--4-5--4--5------2-4-5---5----4-------------  
G-----------------------------------------------  
D-----------------------------------------------  
A-----------------------------------------------  
E-----------------------------------------------  
 
Fm Cm  
--2--1-2--1--2--------0-2---2--4-0-------------  
--------------------4--------------------------  
-----------------------------------------------  
-----------------------------------------------  
-----------------------------------------------  
-----------------------------------------------  
 
E Fm  
--0----0-----0----------0---0--2---------------0-2-5-  
-----4----4---------2-4----------4--3--4-----4-----7-  
-----------------------------------------------------  
-----------------------------------------------------  
-----------------------------------------------------  
-----------------------------------------------------  
 
A Gm  
---4--4--2--2--0--2--0-------------------0-2--  
---5--5--4--4--2--4--2----4--4---------4------  
----------------------------------------------  
----------------------------------------------  
----------------------------------------------  
----------------------------------------------  
 
A Fm  
---5-5-5--4--5------2-5-5----4--4--5--2-------0-2-2-  
---4----------------------------------------4-------  
----------------------------------------------------  
----------------------------------------------------  
----------------------------------------------------  
----------------------------------------------------  
 
E Cm  
----4-0-----0-------0---0-------0---------------0-2-  
---------4--------4---4------4-----4--2-----2-4-----  
----------------------------------------------------  
----------------------------------------------------  
----------------------------------------------------  
----------------------------------------------------  
 
A Gm  
---0-----------------------------------------  
------2--4--4--2--2--4--1--------------------  
--------------------------------------------*  
--------------------------------------------*  
---------------------------------------------  
---------------------------------------------
 
 

Видео