Песни из кино и мультфильмов - Ваше Благородие (к/ф "Белое солнце пустыни"), аккорды

Прокрутка
Тональность
Шрифт
100
Вступление:
        F   	A7         Dm 	        Cm7 (3лад)	C 
E||----x-x--|---x--x--|---x------x-|---x--5--3------|---x---|- 
b||---x--x--|--x---x--|--x-----x---|--x--------6--5-|--x----|- 
G||--x---x--|-x----x--|-x----x-----|-x--------------|-x-----|- 
D||---------|------ --|------------|----------------|-------|- 
A||-x-------|-x----  -|-x----------|-x--------------|-x-----|- 
E||---------|------- -|------------|----------------|-----|- 
 
  A7	   Dm		Am		E 	        
E----x-|-------3--x-|---x-----x--|--------x----|- 
B---x--|-----x------|---x-----x--|------x------|- 
G--x---|---x--------|---x-----x--|----x------x-|- 
D------|-x----------|------------|-------------|- 
A-x----|------------|-x----------|--x----------|- 
E------|------------|------x-----|-------------|- 
             
 Проигрыш:		
      Am        E   	     Am 	                
E|-x---------|-x--x-------|------- 
B|-x---------|-x--x-------|----- 
G|-x---------|-x--x-------|---- 
D|-----------|------------|--- 
A|-x--0------|---------0--|-- 
E|------3--1-|-------4----|- 
 
Am                 E        AmG ↓ 
Ваше благородие, госпожа Разлука 
С                        G         CA7 ↓ 
Мы с тобой друзья давно Вот какая штука	 
Dm     		   G            CA7 ↓  
Письмецо в конверте Погоди, не рви       
Dm               Am    E    	   AmA7 ↓ 
не везет мне в смерти Повезет в любви.   
Dm     		   G             CA7 ↓  
Письмецо в конверте Погоди, не рви       
Dm               Am    E    	   Am ↓ Проигрыш 
не везет мне в смерти Повезет в любви.   
 
	 
Ваше благородие, госпожа Чужбина 
Жарко обнимала ты Да только не любила 
В ласковые сети постой, не зови       |2х 
не везет мне в смерти Повезет в любви |2х 
   				Проигрыш 
 
Ваше благородие, госпожа Удача 
Для кого ты добрая, Для кого иначе 
Девять граммов в сердце, Постой, не зови |2х 
не везет мне в смерти Повезет в любви    |2х 
  				 Проигрыш 
 
Ваше благородие, госпожа Победа 
Значит моя песенка, До конца не спета 
Перестаньте, черти, Да клясться на крови |2х 
не везет мне в смерти Повезет в любви    |2 
				Проигрыш 
Outro:
    Am          E   	     Am          EAm ↓ 
E|-x---------|-x--x------|-------1--0-0-|--- 
H|-x---------|-x--x------|-----х--------|-- 
G|-x---------|-x--x------|---х----------|-- 
D|-----------|-----------|-х------------|-- 
A|-x--0------|---------0-|--------------|-- 
E|------3--1-|-------4---|--------------|--
 
 
Свернуть Распечатать

Видео