Песни из кино и мультфильмов - Игра престолов, аккорды

Прокрутка
Тональность
Шрифт
100
-----------------------------------------------------------------------------------------------------------
-----------------------------------------------------------------------------------------------------------
-----------------------------------------------------------------------------------------------------------
-7-357--357-357-357-457-457--457-357-352----2----2-----2-5-325-3-2--------------------
--5-----5-----5----5----5----5-----5-----5----5----035-035-035----3----3----5135135135----
-----------------------------------------------------------------------------------------------------------

------------------------------------------------------------------------------------------------------------
------------------------------------------------------------------------------------------------------------
------------------------------------------------------------------------------------------------------------
7--357--352-----2-----2----5-325-3-2---------------------------------------------------------------
--5-----5-----035--035-035-3----3----501350135035--------------------------------------------
--------------------------------------------------------------------------------------------------------------
 
 
Свернуть Распечатать

Видео