Песни из кино и мультфильмов - Волшебный мир ("Алладин"), аккорды

Прокрутка
Тональность
Шрифт
100
Вот сияющий мир,        Бесконечно прекрасный    О, принцесса,   ведь ты мечтать не смела с давних пор
e--------------------------------------------------------------------------------------------------------------------------|
b-0------1---0---------------0------1---0------0---------------------0-----------------------------------------------------|
g-----2---------0----------------2-----------0--------2-------2--1-------2------------2--0--------0-------------2--0-------|
d-------------------0---------------------------------------------------------------4-------------4------2----4----------0-|
a--------------------------------------------------------------------------------------------------------------------------|
e--------------------------------------------------------------------------------------------------------------------------|

Птицей в небо взлететь,  Но умчит нас за тучи       самый быстрый     и лучший,этот сказочный ковёр.
e--------------------------------------------------------------------------------------------------------------------------|
b-0------1---0----------------0------1---0------0---------------------0--------------------------------------------------0-|
g-----2---------0-----------------2-----------0--------2-------2--1-------2------------2--0--------0-------------2--0------|
d-------------------0----------------------------------------------------------------4------------4--------2----4----------|
a--------------------------------------------------------------------------------------------------------------------------|
e--------------------------------------------------------------------------------------------------------------------------|

Волшебный мир -  чудес немало встретишь ты.   Тут мы с тобой летим куда хотим,   И  это наше право.
e-------------0----------------0------------------------------------------2--0------------2--0---------------------------------|
b-0----1---------3-----0--1------3----------1----0--0-----0---1--3-------------3--------------3--------0-----------------------|
g---------------------------------------2-----------------------------------------------0----------------0-------2--0-----0--2-|
d------------------------------------------------------------------------------------------------------------------------2-----|
a------------------------------------------------------------------------------------------------------------------------------|
e------------------------------------------------------------------------------------------------------------------------------|

Волшебный мир          Я верю,сбудутся мечты!           
e-------------0----------------0-----------------------|
b-0----1---------3------0--1------3----------1----0--0-|
g---------------------------------------2--------------|
d------------------------------------------------------|
a------------------------------------------------------|
e------------------------------------------------------|

Дивный,прекрасный край            Он словно рай,            слепит глаза от этой красоты.
e-------------------2--0--------------------2--3---------------------------------------------------------|
b-0----1----3--------------3------------------------3-----------------0----------------1----0------------|
g-------------------------------------0-----------------------0------------2---0--2--------------0-----0-|
d------------------------------------------------------------------------------------------------------4-|
a--------------------------------------------------------------------------------------------------------|
e--------------------------------------------------------------------------------------------------------|

Что нас ждет впереди       На ковре-самолёте           Мы в волшебном полёте      Сердце рвётся из груди
e----------------------------------------------------------------------------------------------------------------------------|
b-0------1-------0--------------0------1---0------0---------------------0--------------------------------------------------0-|
g-----2--------------0--------------2----------0-----2----------2---1-------2----------2--0--------0-------------2--0--------|
d------------------------0-----------------------------------------------------------4-------------4------2----4-------------|
a----------------------------------------------------------------------------------------------------------------------------|
e----------------------------------------------------------------------------------------------------------------------------|

Волшебный мир         Ах эта сказочная ночь       
(Да открой же глаза)   (Дальше ждут нас открытья)
e-------------0---------------------0--------------------------|
b-0----1---------3---------0--1------3---------1----0--0-------|
g--------------------------------------------2-----------------|
d--------------------------------------------------------------|
a--------------------------------------------------------------|
e--------------------------------------------------------------|

В небе летаю я,                 витаю я       Назад вернуться мне уже не смочь
e--------------2--0---------------2--3-----------------------------------------------------|
b--0---1--3------------3----------------3------------0-------------------------------------|
g-------------------------------0----------------0------------------2------0-------0-----2-|
d-------------------------------------------------------------------------------2----------|
a------------------------------------------------------------------------------------------|
e------------------------------------------------------------------------------------------|

Волшебный мир                    Какое счастье так лететь
(Сколько новых чудес)         (Каждый миг дарит радость!)
e-------------0---------------------------0--------------------------|
b-0----1---------3----------------0--1------3---------1----0--0------|
g--------------------------------------------------2-----------------|
d--------------------------------------------------------------------|
a--------------------------------------------------------------------|
e--------------------------------------------------------------------|

И тишине ночной                 Летишь со мной                 Я лечу в волшебный мир с тобой.
e------------------2--0--------------------2--3-------------------------------------------------------|
b-0----1----3------------3------------------------3-----------------0----------------1----0-----------|
g-------------------------------------0-----------------------0------------2---0--2--------------0---0|
d----------------------------------------------------------------------------------------------------4|
a-----------------------------------------------------------------------------------------------------|
e-----------------------------------------------------------------------------------------------------|

Волшебный мир,      Полёт ночной,      Ушла печаль          И манит даль,            И ты со мной
e-----------0-----------------------0---------------------0----------------------0----------------------------|
b-0----1-------3---------0----1-------3-------0-----1-------3-------0------1------3---------------------------|
g--------------------------------------------------------------------------------------------------0-------0--|
d---------------------------------------------------------------------------------------------0-------4-------|
a-------------------------------------------------------------------------------------------------------------|
e-------------------------------------------------------------------------------------------------------------|
 
 

Видео