Песни из кино и мультфильмов - Hatred (OST "Naruto"), аккорды

Прокрутка
Тональность
Шрифт
100
Intro: (Loops throughout entire song)
E|--------------------------------------------------------
B|--------------------------------------------------------
G|-----------2-------------3------------2---------------1-
D|--------0-------------0------------0--------------0-----
A|-----0-------------0------------0-------------0---------
D|--0-------------0------------0------------0-------------

E|--------------------------------------------------------
B|--------------------------------------------------------
G|-----------2-------------3------------2---------------1-
D|--------0-------------0------------0--------------0-----
A|-----0-------------0------------0-------------0---------
D|--0-------------0------------0------------0-------------

E|----------------------
B|----------------------
G|----------------------
D|-------0---0---0----0-
A|--0-----------------0-
D|--0--7---6---5---3--0-

Verse: (At 0:42 or after intro has played twice, 
loops until end of song)
E|----------------------------------------------------------
B|---------------------------------------13---11------------
G|-10/14-----12---------------------7/14------------13---14-
D|-------15------15---14---12-------------------------------
A|----------------------------------------------------------
D|----------------------------------------------------------
 
 

Видео