Песни из кино и мультфильмов - Тема из к/ф "Профессионал", аккорды

Прокрутка
Тональность
Шрифт
100
                  1st part
E----------------------------------
B|--|-14---14-14----12-10-12-----10---------9--10-10-------
G||-14-14-14-14---------------------11----------------7----
D----------------------------------
A----------------------------------
E----------------------------------

   --------------------------------------------------------------------
   -9-7-9------------7-5-7---------14-12------14---------14---14-14----
   --------6----------------4------------------------------------------
   --------------------------------------------------------------------
   --------------------------------------------------------------------
   --------------------------------------------------------------------

   -----------------14-------------------------------------------------
   -12-10-12-----10------9-10------9p7h9-9p7h9-9p7h9-9---------7-------
   ---------------------------7------------------------7---------------
   --------------------------------------------------------------------
   --------------------------------------------------------------------
   --------------------------------------------------------------------

   --------------------------------------------------------------------
   -7p5h7-7p5h7-7p5h7----------6--6p4h6-6p4h6-6p4h6---7----------------
   --------------------4--4--------------------------------------------
   --------------------------------------------------------------------
   --------------------------------------------------------------------
   --------------------------------------------------------------------

2nd part
   --------------------------------------------------------------------
   --------------------------------------------5-7~---5-7-8-7-5~-------
   --6~~--4-6-7-6-4---4~-----------------4h6h7-------------------7-6-7~
   -----------------7-----7-6-7~---4h6h7-------------------------------
   --------------------------------------------------------------------
   --------------------------------------------------------------------

   --------------------------------------------------------------------
   --------7--9~---4--6~----7-9-10--14--12~--7--9~~--------------------
   -6-4-6--------------------------------------------------------------
   --------------------------------------------------------------------
   --------------------------------------------------------------------
   --------------------------------------------------------------------