Песни из кино и мультфильмов - Тема из к/ф "Профессионал", аккорды

Прокрутка
Тональность
Шрифт
100
(a la Intro ...)
E----------------------------------------------
B----------------------------------------------
G||--4h6-7-6-4-6-7~~~-------9~---------10~-----------------------------
D----------------------------------------------
A----------------------------------------------
E----------------------------------------------

   (lead part)
   --------------------------------------------------------------------
   ---------12~--------10--------------------------10-8~----8--7-7~----
   --11----------11h12-----12-----12-12~----9----9--------9------------
   ------9----------------------9--------------7-----------------------
   --------------------------------------------------------------------
   --------------------------------------------------------------------

   --------------------------------------------------------------------
   -------8-8----5-7-5---5~----5-5~----------7-----5-------------------
   -7----------7-------7---------------6---------6----7-7~-------------
   ----5---------------------5------------4----------------------------
   --------------------------------------------------------------------
   --------------------------------------------------------------------