Песни из кино и мультфильмов - Подмосковные вечера (к/ф "В дни Спартакиады"), аккорды

Прокрутка
Тональность
Шрифт
100
-----------------------|------------------------------------------------------
-----------------------|-------------------------5----------------------------
-----------------------|-----5-5-7--5------4--6----7--------------5-----------
-----7---5-----7--5----|---7----------8-7------------7------7-5-8---8-7-5-----
-5-8---8---8-7-------5-|-8------------------------------7-5---------------8---
-----------------------|------------------------------------------------------
                                                                             
------------------------------------------------------------------------------
------------------------------------------------------------------------------
------------------------------------------------------------------------------
-7---5------------------------------------------------------------------------
---------5--------------------------------------------------------------------
------------------------------------------------------------------------------                                                 

Bm             Fm     B7  Bm F7
Не слышны в саду даже шорохи,
B             G   F7   B 
Все: здесь замерло до утра.
C7 B7     B7              Fm
Если б знали вы, как мне дороги
      Bm     B7   Bm   x2 
Подмосковные вечера.

Речка движется и не движется,
Вся из лунного серебра.
Песня слышится и не слышится
В эти тихие вечера.

Что ж ты, милая, смотришь искоса,
Низко голову наклоня?
Трудно высказать и не высказать
Все: что на сердце у меня.

А рассвет уже все: заметнее.
Так, пожалуйста, будь добра,
Не забудь и ты эти летние
Подмосковные вечера!
 
 

Видео