Песни из кино и мультфильмов - We are Number One (From "LazyTown "), аккорды

Прокрутка
Тональность
Шрифт
100
e|--8-7-8-7-8-4----4-8-9-9-11-8-9-8-9-8-
b|-6-----------6--6-----9---------------
g|--------------------------------------
d|--------------------------------------
a|--------------------------------------
e|--------------------------------------
                                       Hey!
  Fm/G                 C#     C  
e|--8-7-8-7-8-4----4-8-9-9-11-8-9-8-9-8-
b|-6-----------6--6-----9---------------
g|--------------------------------------
d|--------------------------------------
a|--------------------------------------
e|--------------------------------------
                             We are Number One Hey!
  Fm/G                 C#     C  
e|--8-7-8-7-8-4----4-8-9-9-11-8-9-8-9-8-
b|-6-----------6--6-----9---------------
g|--------------------------------------
d|--------------------------------------
a|--------------------------------------
e|--------------------------------------
                             We are Number One 
Fm/G
   Now listen closely
Fm/G 
Here's a little lesson in trickery
  C#                   C
This is going down in history
Fm/G
If you wanna be a Villain Number One
    C#                        C
You have to chase a superhero on the run
      A#m                   Cm
Just follow my moves, and sneak around
    C#                    D#
Be careful not to make a sound
Shh
CRUNCH
                     6:IV 6:III 6:II
No, don't touch that!
   Fm/G                C#     C  
e|--8-7-8-7-8-4----4-8-9-9-11-8-9-8-9-8-
b|-6-----------6--6-----9---------------
g|--------------------------------------
d|--------------------------------------
a|--------------------------------------
e|--------------------------------------
                             We are Number One Hey!
   Fm/G                C#     C   
e|--8-7-8-7-8-4----4-8-9-9-11-8-9-8-9-8-
b|-6-----------6--6-----9---------------
g|--------------------------------------       A
d|--------------------------------------
a|--------------------------------------
e|--------------------------------------   
                             We are Number One 
   Fm/G                C#     C  
e|--8-7-8-7-8-4----4-8-9-9-11-8-9-8-9-8-
b|-6-----------6--6-----9---------------
g|--------------------------------------      Fm/G
d|--------------------------------------
a|--------------------------------------
e|--------------------------------------
                             We are Number One

    Fm/G
Now look at this net, that I just found
     C#            C
When I say go, be ready to throw
Go!
Throw it at him, not me!
Ugh, let's try something else

     Fm/G
Now watch and learn, here's the deal
        C#                      C
He'll slip and slide on this banana peel
                              6:IV 6:III 6:II
Ha ha ha, WHAT ARE YOU DOING!?
   Fm/G                C#     C
e|--8-7-8-7-8-4----4-8-9-9-11-8-9-8-9-8-
b|-6-----------6--6-----9---------------
g|--------------------------------------
d|--------------------------------------
a|--------------------------------------
e|--------------------------------------
                                       Hey!
   Fm/G                C#     
e|--8-7-8-7-8-4----4-8-9-9-11-
b|-6-----------6--6-----9-----
g|----------------------------
d|----------------------------
a|----------------------------
e|----------------------------
   Fm/G                C#     C  
e|--8-7-8-7-8-4----4-8-9-9-11-8-9-8-9-8-
b|-6-----------6--6-----9---------------
g|--------------------------------------
d|--------------------------------------
a|--------------------------------------
e|--------------------------------------
                             We are Number One Hey!
   Fm/G                C#     
e|--8-7-8-7-8-4----4-8-9-9-11-
b|-6-----------6--6-----9-----
g|----------------------------
d|----------------------------
a|----------------------------
e|----------------------------

   F#m/G#               D        C#
e|--9-8-9-8-9-5----5-9-10--10-12-9-10-9-10-9-
b|-7-----------7--7------10------------------
g|-------------------------------------------
d|-------------------------------------------
a|-------------------------------------------
e|-------------------------------------------
                                            Hey!
   F#m/G#               D        C#
e|--9-8-9-8-9-5----5-9-10--10-12-9-10-9-10-9-
b|-7-----------7--7------10------------------
g|-------------------------------------------
d|-------------------------------------------
a|-------------------------------------------
e|-------------------------------------------
                                            Hey!
   F#m/G#               D        C#
e|--9-8-9-8-9-5----5-9-10--10-12-9-10-9-10-9-
b|-7-----------7--7------10------------------
g|-------------------------------------------
d|-------------------------------------------
a|-------------------------------------------
e|-------------------------------------------
                                We are Number One Hey!
   F#m/G#               D        C#
e|--9-8-9-8-9-5----5-9-10--10-12-9-10-9-10-9-
b|-7-----------7--7------10------------------
g|-------------------------------------------
d|-------------------------------------------
a|-------------------------------------------
e|-------------------------------------------
                                We are Number One Hey!
   C#
e|-9-10---9-10--9----9-10---9-10--9-
b|----------------------------------
g|----------------------------------
d|----------------------------------
a|----------------------------------
e|----------------------------------
  We are Number One We are Number One We are Number One
 C#
Hey!
F#m
Hey!
 
 
Свернуть Распечатать

Видео