Песни из кино и мультфильмов - Naruto Shippuden (Solo Guitar), аккорды

Прокрутка
Тональность
Шрифт
100
Tuning: Drop D

E|------------------------------------------------------------------|
B|------------------------------------------------------------------|
G|------------------------------------------------------------------|
D|-0-2/3p0--/5--/5---------------0-2/3p0--0---0---------------------|
A|-0-2/3p0--/5--/5---------------0-2/3p0--0---0---------------------|
D|-0-2/3p0--/5--/5---------------0-2/3p0--0---0---------------------|

E|------------------------------------------------------------------|
B|------------------------------------------------------------------|
G|------------------------------------------------------------------|
D|-0-2/3p0--/5--/5---------------0-2/3p0--0---0---------------------|
A|-0-2/3p0--/5--/5---------------0-2/3p0--0---0---------------------|
D|-0-2/3p0--/5--/5---------------0-2/3p0--0---0---------------------|

E|------5----------0h1---3-----------0h1--0-----------------------------|
B|--3---------3------------------1-------------3------------------------|
G|----------2------------------0------------------------2---------------|
D|--------0------------------0------------------------0-----------------|
A|-----------------------3--------------------------0-------------------|
D|------0--------------------------------------0------------------------|

E|--------------------------------------------------------------------|
B|--------------------------------------------------------------------|
G|------------------2-------------------------------------------------|
D|-0-2/3p0--0---0-----------------------------------------------------|
A|-0-2/3p0--0---------------------------------------------------------|
D|-0-2/3p0--0---------------------------------------------------------|

E|------5------------/8---7------------3-5------------------------------|
B|--3---------3----------------------------------3----------------------|
G|----------2--------------------7-------------2------------------------|
D|--------0--------------------5-------------0--------------------------|
A|---------------------------5------------------------------------------|
D|------0-----------------5--------------0------------------------------|

E|--------------------------------------------------------------------|
B|--------------------------------------------------------------------|
G|------------------2-------------------------------------------------|
D|-0-2/3p0--0---0-----------------------------------------------------|
A|-0-2/3p0--0---------------------------------------------------------|
D|-0-2/3p0--0---------------------------------------------------------|

E|------5----------0h1---3-----------0h1--0-----------------------------|
B|--3---------3------------------1-------------3------------------------|
G|----------2------------------0------------------------2---------------|
D|--------0------------------0------------------------0-----------------|
A|-----------------------3--------------------------0-------------------|
D|------0--------------------------------------0------------------------|

E|--------------------------------------------------------------------|
B|--------------------------------------------------------------------|
G|------------------2-------------------------------------------------|
D|-0-2/3p0--0---0-----------------------------------------------------|
A|-0-2/3p0--0---------------------------------------------------------|
D|-0-2/3p0--0---------------------------------------------------------|

E|------5------------/8---7------------3-5------------------------------|
B|--3---------3----------------------------------3----------------------|
G|----------2--------------------7-------------2------------------------|
D|--------0--------------------5-------------0--------------------------|
A|---------------------------5------------------------------------------|
D|------0-----------------5--------------0------------------------------|

E|--------------------------------------------------------------------|
B|--------------------------------------------------------------------|
G|------------------2-------------------------------------------------|
D|-0-2/3p0--0---0-----------------------------------------------------|
A|-0-2/3p0--0---------------------------------------------------------|
D|-0-2/3p0--0---------------------------------------------------------|

E|-0h1----------------0h1--0-------------0h1----------------------------|
B|------3-------3------------------2----------3-------------------------|
G|------------0------------------0--------------------2-----------------|
D|----------0------------------0--------------------0-------------------|
A|------0------------------0----------------------0---------------------|
D|--------------------------------------------0-------------------------|

E|--------------------------------------------------------------------|
B|--------------------------------------------------------------------|
G|------------------2-------------------------------------------------|
D|-0-2/3p0--0---0-----------------------------------------------------|
A|-0-2/3p0--0---------------------------------------------------------|
D|-0-2/3p0--0---------------------------------------------------------|

E|-0h1----------------0h1--0-------------0h1----------------------------|
B|------3-------3------------------2----------3-------------------------|
G|------------0------------------0--------------------2-----------------|
D|----------0------------------0--------------------0-------------------|
A|------0------------------0----------------------0---------------------|
D|--------------------------------------------0-------------------------|

E|----------------------------------------------------------------------|
B|----------------------------------------------------------------------|
G|----------------------------------------------------------------------|
D|----------------------------------------------------------------------|
A|-0-2--0---------------------------------------------------------------|
D|-0-2--0---------------------------------------------------------------|

E|------------------------------------------------------------------|
B|------------------------------------------------------------------|
G|------------------------------------------------------------------|
D|-0-2/3p0--/5--/5---------------0-2/3p0--0---0---------------------|
A|-0-2/3p0--/5--/5---------------0-2/3p0--0---0---------------------|
D|-0-2/3p0--/5--/5---------------0-2/3p0--0---0---------------------|
 
 

Видео