Песни из кино и мультфильмов - Генералы песчаных карьеров, аккорды

Прокрутка
Тональность
Шрифт
100
Вступление:	1) ------------------------------------------------
2) ------------------------------------------1--3--
3) ---------------------------------------2--------
4) ------------------------------------------------
5) ------------------------------------------------
6) ------------------------------------------------
 
1) 0-----------------0-----------------------0-----
2) ---3--1--0-----------1--3-----3-----3--1-----3--
3) ------------2--2-----------2-----2--------------
4) ------------------------0-----------------------
5) 0-----------0-----------------------------------
6) ------------------------------------------------

1) ------------------------------------0-----------
2) 1-----1-----1--1--3--1--0--------0--------1--3--
3) ---0-----0--------------------1--------2--------
4) ---------------------------2--------------------
5) 3-----------------------------------------------
6) ------------------------0-----------------------

1) 0-----------------5-----3--------------0--5--3--
2) ---3--1--0-----------5--------0-----0-----------
3) ------------2--2-----------0-----0--------------
4) ------------------------------------------------
5) 0-----------0-----------------------------------
6) ------------------------3-----------------------

1) 1-----------------3--1--0-----------0-----------
2) ------1-----1--3-----------------0--------1--3--
3) ---0-----0--------------------1--------2--------
4) ---------------------------2--------------------
5) 3-----------------------------------------------
6) ------------------------0-----------------------

1) 0-----------------0-----------------------0-----
2) ---3--1--0-----------1--3-----3-----3--1-----3--
3) ------------2--2-----------2-----2--------------
4) ------------------------0-----------------------
5) 0-----------0-----------------------------------
6) ------------------------------------------------

1) ------------------------------------------------
2) 1--0--3--1--0-----1 p0--------------------------
3) ------------------------2-----------------------
4) ---------------2--------------------------------
5) 3-----------------------0-----------------------
6) ------------0-----------------------------------

Am         Dm
(1)Я начал жизнь в трущобах городских,
C       E
И добрых слов я не слыхал.
Am         G7
Когда ласкали вы детей своих-
C       E
Я есть просил, я замерзал.
Am       Dm
Вы увидав меня не прячьте взгляд
C           E  Am
Ведь я ни в чем, ни в чем не виноват.

Проигрыш

(2)За что вы бросили меня, за что?
Где мой очаг? Где мой ночлег?
Не признаете вы мое родство,
А я вам брат, я человек.
Вы вечно молитесь своим богам,
И ваши боги все прощают вам.

Проигрыш

(2)Край небоскребов и шикарных вилл,
Из окон льет слепящий свет.
О, если б мне хоть раз набраться сил,
Вы б дали мне за все ответ.
Откройте двери, люди, я ваш брат
Ведь я ни в чем, ни в чем не виноват.

Проигрыш

(4)Вы знали ласки матерей родных,
А я не знал и лишь во сне,
В моих мечтаньях детских золотых
Мать иногда являлась мне.
О мама если бы найти тебя,
Была б не так горька моя судьба.

-

На первой струне

[0 3 5 7 5 3 2 0 7 5
5 7 5 3 3 5 3 2
0 3 5 7 5 3 2 0 12 10
10 12 10 8 8 10 8 7
0 3 5 7 5 3 2 0 7 5
5 7 5 3 3 5 3 2 3 0]

-

Hm Em
'Я начал жизнь в трущебах городск'их
D F#
И добрых сл'ов я не слых'ал.
Hm H7
Когда ласк'али вы детей сво'их,
Em A D
Я есть прос'ил 'я замерз'ал.
Hm Em
'Ой, увидав меня не прячте взгл'яд,
D F# Hm
Ведь я ни в ч'ем, ни в чем не в'инов'ат.

За что вы бросили меня, за что?
Где мой очаг, где мой ночлег?
Не признаете ыв мое родство,
А я ваш брат, я человек.
Вы вечно молитесь своим богам,
И ваши боги все прощают вам.

Dm Gm
Край небоскребов и раскошных вил.
F A7
Из окон льет слепящий свет.
Dm D7
О если б мне хоть раз набраться сил,
Gm C F
Вы дали б мне за все ответ.
Dm Gm
Откройте двери, люди, я ваш брат,
F A7 Dm
Ведь я ни в чем, ни в чем не виноват.

Am Dm
Вы знали ласки матерей родных,
C E7
А я не знал, и лишь во сне,
Am A7
В моих мечтаньях детских золотых
Dm G C
Мать иногда являлась мне.
Am Dm
Ох, мама, если бы найти тебя,
C E Am
была б не так горька моя судьба.
 
 
Свернуть Распечатать