Разные песни - Запоздалое письмо (Максим Панков), аккорды

Прокрутка
Тональность
Шрифт
100
Intro:
B|-------------------7h8-5-7-7h8p7-|-12-10-8-5---|
G|---------------------------------|-------------|
D|---------------------------------|-------------|
А|--------0h2h3--------------------|-------------|
E|-0-2-3---------------------------|-------------|

B|-------------------7h8-5-7-7h8p7-|-8-10-12-5---|
G|---------------------------------|-------------|
D|---------------------------------|-------------|
А|--------0h2h3--------------------|-------------|
E|-0-2-3---------------------------|-------------|

B|-------------------7h8-5-7-7h8p7-|-12-10-8-5---|
G|---------------------------------|-------------|
D|---------------------------------|-------------|
А|--------0h2h3--------------------|-------------|
E|-0-2-3---------------------------|-------------|

B|-----------------7h8-5-7-7h8p7-5|-----------------|
G|--------------------------------|-7-6-3-4-7-6-3-4-|
D|--------------------------------|-----------------|
А|--------0h2h3-------------------|-----------------|
E|-0-2-3--------------------------|-----------------|

Em D
Я тебе напишу обо всем.
C D Em
Как кружиться февральский снег.
G D
И как утром проснувшись в нем
C H Em
Мы оставим свой лыжный след.
Напишу как от далекой зимы,
Я устану, но это не в счет.
Ведь еще не привыкли мы,
И дорога нас в даль зовет..

C D
Тонкой лентой за перевал
G D Em
Растворившись в полярном дне,
C D
Уведет край заснеженных скал,
G D Em
Свою душу открыв тебе.
C D
Может я неправильно жил,
G D Em
Отдавая всего себя,
C D C D Em
И вершины, что я любил были больше чем ты и я…

Я тебе напишу обо всем,
Словно каясь в своих грехах.
Вот уж ночь золотится днем,
Раздувая рассвет в горах.

Тонкой лентой за перевал
Растворившись в полярном дне,
Уведет край заснеженных скал,
Свою душу открыв тебе.
Может я неправильно жил,
Отдавая всего себя,
И вершины, что я любил были больше чем ты и я…

Тонкой лентой за перевал
Растворившись в полярном дне,
Уведет край заснеженных скал,
Свою душу открыв тебе.
Может я неправильно жил
Отдавая всего себя,
И вершины, что я любил были больше чем ты и я 

Может я неправильно жил,
Отдавая всего себя,
И вершины, что я любил были больше чем ты и я…
Были больше чем ты и я…

Outro = Intro x2
 
 

Видео