Разные песни - Аленка, аккорды

Прокрутка
Тональность
Шрифт
100
Перебор:
1.)------------7------------5-----------3------------2-----------0------------2-----------0--
2.)---------0----0-------0---0-------0---0-------0---0-------1---1-------1---1-------0---0---
3.)------0---------0---0-------0---0-------0---0-------0---0-------0---2-------2---0-------0-
4.)---5--------------4------------2-----------2-------------------------0-----------2--------
5.)----------------------------------------------------------3-------------------------------
6.)------------------------------------------------------------------------------------------

Куплет:
 *       **           ***  Am          B7       Em
  Уже четый день подряд,   Аленку прячут от меня
Её как в детстве малыша, не отпускают ни куда.

Припев:
Она к окну прижавши нос
В ответ на мой немой вопрос,
И пишет пальцем, позвони
Ты только голос измени.

Куплет:
Напротив дома автомат, звоню четвёртый(который) раз подряд,
Но грубый голос говорит: Аленки нет, Аленка спит.

Припев:
Она к окну прижавши нос
В ответ на мой немой вопрос,
И пишет пальцем, я не сплю
(И пишет пальцем по стеклу)
(Рисует пальцем по стеклу)
Я дома, я тебя люблю
(имя, я тебя люблю)

СОЛО:

Куплет:
Ушёл последний мой трамвай, опять по шпалам мне шагать
Опять от мамки попадёт, вот не везёт, так не везёт.
И дверь родимую открыв, мне мама строго говорит:
“Сыночек ужинать и спать”, а на любовь ей наплевать.
Happy End…

Комментарий автора:

Как зажимать эти аккорды:
*        **       ***
1|---7-  1|---5-  1|---3-
2|-----  2|-----  2|-----
3|-----  3|-----  3|-----
4|-5---  4|-4---  4|-2---
5|-----  5|-----  5|-----
6|-----  6|-----  6|-----
 
 
Свернуть Распечатать