Разные песни - фламенко(для новичков), аккорды

Прокрутка
Тональность
Шрифт
100
начало...
1)-0----0--0--0--0---0----0--0--0--0--0-----0--0--0--0-----------------------
2)-0---0--0--0--0----0---0--0--0--0---0----0--0--0--0------------------------
3)-1--1--1--1--1-----2--2--2--2--2----4---4--4--4--4-------------------------
4)-2-----------------3----------------5--------------------------
5)-2-----------------3----------------5-------------------------
6)-0-----------------0----------------0--------------------------

дальше.....

(4 раза)
1)-0----0----0----0----0----------------------------------------
2)-0----0----0----0----0---------------------------------------
3)-1----2----4----2----1---------------------------------------
4)-2----3----5----3----2----------------------------------------
5)-2----3----5----3----2----------------------------------------
6)-0----0----0----0----0----------------------------------------

в конце:
1)------0--------------------------------------------------------
2)-----0---------------------------------------------------------
3)----1----------------------------------------------------------
4)---2-----------------------------------------------------------
5)--2------------------------------------------------------------
6)-0-------------------------------------------------------------

Комментарий автора:

аккорды играть большим пальцем
 
 
Свернуть Распечатать