Сплин - Романс, аккорды

Прокрутка
Тональность
Шрифт
100
 Вступление и основная часть:  
    Dm/F		       Am  
 E||--------------------------|--------------------0-----|  
 B||-----------3--------3-----|----------0h1-------------|  
 G||--------2--------2-----2--|--------2-----2--------2--|  
 D||-----3--------3-----------|-----2-----------2--------|x2  
 A||--0-----------------------|--0-----------------------|  
 E||--------------------------|--------------------------|  
  
    Dm			       C  
 E||----------0h1-------1-----|--------------------0-----|  
 B||--------3--------3-----3--|----------0h1-------------|  
 G||-----2--------2-----------|--------0-----0--------0--|  
 D||--0-----------------------|-----2-----------2--------|  
 A||--------------------------|--3-----------------------|  
 E||--------------------------|--------------------------|  
  
    Dm	         C	       Am  
 E||-----------1--------------|--------------------0-----||  
 B||--------3--------------1--|----------0h1-------------||  
 G||-----2--------------0-----|--------2-----2--------2--||  
 D||--0--------------2--------|-----2-----------2--------||  
 A||--------------3-----------|--0-----------------------||  
 E||--------------------------|--------------------------||  
  
Вся песня играется таким перебором. Слушайте мелодию.  
  
И лампа не горит, и врут календари,  
И если ты давно хотела что-то мне сказать,  
То говори.  
Любой обманчив звук. Страшнее тишина,  
Когда в самый разгар веселья падает из рук  
Бокал вина.  
И чёрный кабинет, и ждёт в стволе патрон.  
Так тихо, что я слышу, как идёт на глубине  
Вагон метро.  
  
На площади полки. Темно в конце строки.  
И в телефонной трубке эти много лет спустя  
Одни гудки.  
И где-то хлопнет дверь, и дрогнут провода.  
Привет! Мы будем счастливы теперь  
И навсегда.  
Привет! Мы будем счастливы теперь  
И навсегда.  

Комментарий автора:

Dm/F	[003231]  
Dm	[000231]  
Am	[002210]  
C	[332010]
 
 

Видео