Виктор Цой - Рядом со мной, аккорды

Прокрутка
Тональность
Шрифт
100
Вступление:
E|-7-------------------|--------------------------------------||
B|-7-------------------|--------------------------------------||
G|-7-3-3-3-3-2-3-3-3-2-|-3-3-3--3-2--3-3-3--2-3---2-2-2-2-3-5-||
D|-9-3-3-3-3-2-3-3-3---|------------------------3-------------||
A|---------------------|--------------------------------------||
E|---------------------|--------------------------------------||

Соло в куплете:
E|----------8----------|
B|------9-8---8--6-8---|
G|---------------------|

C
Ты звонишь мне каждый день,
Hm
Я не знаю, как мне быть,
Am D
Я не знаю, как мне дать
G
Тебе понять, что я уже не тот.

Раньше я тебя любил,
Но сердце больше не поет,
И с момента нашей первой встречи
Скоро будет целый год.

Em Am
Ты выглядишь так несовременно
G Hm
Рядом со мной.

Я же говорил тебе,
Что так уже ходить нельзя,
А ты не понимаешь ничего
И ничего не хочешь менять.
А я учил тебя целый год,
Тратил время целый год,
Ты думала, что я шучу,
И до сих пор не можешь понять.

Ты выглядишь так несовременно
Рядом со мной.
 
 

Видео