Виктор Цой - Хочу быть с тобой, аккорды

Прокрутка
Тональность
Шрифт
100
G#m A
E|--4-4-4-4-------------------------|--4----------|
B|----------4-4-4-4-0-0-0-0---------|-----4--0----|
G|--------------------------1-1-1-1-|-----------1-|
D|----------------------------------|-------------|
A|----------------------------------|-------------|
E|----------------------------------|-------------|

E|--------------------------4-4-4-4-|-----------4-|
B|----------0-0-0-0-4-4-4-4---------|-----0--4----|
G|--1-1-1-1-------------------------|--1----------|
D|----------------------------------|-------------|
A|----------------------------------|-------------|
E|----------------------------------|-------------|

G#m                A
Мы не видели солнца уже несколько дней,
C#m                   D7#
Наши ноги утратили крепость на этом пути
Мне хотелось войти в дом, но здесь нет дверей,
Руки ищут опору, и не могут найти.

             G#m A C#m D7#
  Я хочу войти в дом-
             G#m A C#m D7#
  Я хочу войти в дом-
    G#m A C#m D7# C#m
  В дом-

Я сточил не один медиатор о терку струны,
Видел много озер, но я не видел морей,
Акробаты под куполом цирка не слышат прибой,
Ты за этой стеной, но я не вижу дверей.

  Я хочу быть с тобой-
  С тобой-
  С тобой-

Я родился на стыке созвездий, но жить не могу,
Ветер двадцать метров в секунду ночью и днем,
Раньше я читал книги, а теперь я их жгу,
Я хочу идти дальше, но я сбит с ног дождем.

  Я хочу быть с тобой-
  С тобой-
  С тобой-
  Я хочу быть с тобой...
 
 

Видео