Виктор Цой - Просто хочешь ты знать, аккорды

Прокрутка
Тональность
Шрифт
100
Вступление:
  G#    C#   A#m A#m7         G# G# G# G#     A# A# A# A#
E|-4-4-4-4-4-4-4-4-6--6-6-6-6-|--4-----4---------6-----6------|
B|-4-4-4-4-5-5-5-5-6--6-6-6-8-|--4-----4---------6-----6------|
G|-5-5-5-5-6-6-6-6-6--6-6-6-8-|-5-5-5-5---------7-7-7-7------|
D|-6-6-6-6-6-6-6-6-8--6-8-8-8-|-6-6-6-6---------8-8-8-8------|
A|-6-6-6-6-4-4-4-4-8--8-8-8-6-|--6-6-6-6-----3-6-8-8-8-8------|
E|-4-4-4-4---------6--6-6-6---|--4-4-4-4-4-6-----6-6-6-6-8/-6-|

   D#
E|-----------------------------------|
B|----8---8---8---8---8---8---8---8--|
G|--8---8---8---8---8---8---8---8---|
D|----------------------------------|
A|--6---------------6----------------|
E|-----------------------------------|

   D#
E|--------------------------------------------------|
B|--------------------------------------------------|
G|-----12----12----12----12----12----12----12----12-|
D|--13----13----13----13----13----13----13----13----|
A|--------------------------------------------------|
E|--11----------------------11----------------------|

Соло перед 3-м куплетом:
   G#G#G#G# здесь играется быстро здесь немного помедленнее
E|--4-----4-3-4-3-4-3-4-3-4-6-3-4-6-8-|-3-6-8-3-6-8-3-6-8-3-4--|
B|--4-----4---------------------------|------------------------|
G|-5-5-5-5---------------------------|-----------------------|
D|-6-6-6-6---------------------------|-----------------------|
A|--6-6-6-6---------------------------|------------------------|
E|--4-4-4-4---------------------------|------------------------|
Перед 6 ладом можно делать форшлаг с 4 лада.

G#       C#m  Am7#
Идешь по улице один,
       D#       G#
Идешь к кому-то из друзей.
        C#m       A#m
Заходишь в гости без причин,
        D#       G# C F
И просишь свежих новостей e-ей.

Припев:
  F              A7#
  Просто хочешь ты знать
  C#m         G#   C F
  Где и что происходит м-м.
  Просто хочешь ты знать.
  Где и что происходит

Звонишь по телефону всем
Кого-то нет, а кто-то здесь.
Для разговоров много тем,
Для разговоров время е-e-есть.

Припев.

Узнал что где-то пьют вино,
А где-то музыка слышна.
Тебя зовут туда где пьют,
И ты берешь еще вина-а-а.

Припев.

Там кто-то спор ведет крутой,
А кто-то просто спит давно.
И с кем-то рядом ты сидишь,
И с кем-то вместе пьешь вино-о-о.

Припев.
 
 

Видео