Виктор Цой - Кукушка, аккорды

Прокрутка
Тональность
Шрифт
100
Intro:
E|--------------------------------------------|
B|-7---5-7-----7---10-7-----5---7-5---7-5-3-5-|
G|---------7------------7---------------------|
D|--------------------------------------------|
A|--------------------------------------------|
E|--------------------------------------------|
 
E|------------------------------------------5-|
B|---7---5-7-----7---10-7-----5---7-5---5-7---|
G|-----------7------------7-------------------|
D|--------------------------------------------|
A|--------------------------------------------|
E|--------------------------------------------|

Bm
Песен еще ненаписанных, сколько?
       A      Bm
Скажи, кукушка, пропой.
  Bm
В городе мне жить или на выселках,
                    A     Bm
Камнем лежать или гореть звездой? Звездой.

    A5      G5           B5
 R:   Солнце мое - взгляни на меня,

     (далее играется басовый ход)

E|---------------------------|
B|---------------------------|
G|---------------------------| 2 раза
D|---------4-5-4-2-0---------|
A|---2-2-2-------------------|
E|---------------------------|

A5     G5              B5
 Моя ладонь превратилась в кулак, (можно сыграть басовый ход)
A5         G5        B5
 И если есть порох - дай огня.   (басовый ход)
A5  G5     B5  D5 E5 F#5
      Вот так...

Кто пойдет по следу одинокому?
Сильные да смелые головы сложили в поле, в бою.
Мало кто остался в светлой памяти,
В трезвом уме да с твердой рукой в строю, в строю.

Где же ты теперь, воля вольная?
С кем же ты сейчас ласковый рассвет встречаешь? Ответь.
Хорошо с тобой, да плохо без тебя,
Голову да плечи терпеливые под плеть, под плеть.
 
 
Свернуть Распечатать

Видео