Виктор Цой - Дальше действовать будем мы (bass), аккорды

Прокрутка
Тональность
Шрифт
100
Куплет:
G|--------------------------------------------------------------------------------------
D|--------------------------------------------------------------------------------------
A|-0-0-2-0-3-0-2-3------------------0-0-2-0-3-0-2-3---------------------0-0-2-0-3-0-2-3-
E|---------------------3-3-3-3-3-3-3-3-------------------3-3-3-3-3-3-3-3----------------

G|-----------------------------
D|-----------------------------
A|-----------------------------
E|-0-0-2-0-3-2-3-0-0-2-0-3-2-3-
Это все то что на верху играть 2 раза

Припев:
A|-3-3-3-3-3-3-3-3--------------------0-0-0-0-0-0-0-0-2-3-5-5-5-5-5-5-5-5-3-2-
E|---------------------3-3-3-3-3-3-3-3----------------------------------------
 
 

Видео