Виктор Цой - Дальше действовать будем мы, аккорды

Прокрутка
Тональность
Шрифт
100
e ||-------------------------------------------------||
B ||-------------------------------------------------||
G |*------------------------------------------------*||
D |*------------------------------------------------*||
A ||--0--0--2--0--3--0--2--3-------------------------||
E ||-------------------------------3-3-3-3-3-3-3-3---||
(Интро; Играть 4 раза )

e|---------------------------------------------------------------------
B|---------------------3-3-3-3-3-------------------------3-3-3-3-3----
G|--2-2-2-2-2-2-4-5-------------5-4-5-5-5-5-5-5-4-5--------------5-4--
D|--------------------------------------------------------------------
A|--------------------------------------------------------------------
E|-------------------------------------------------------------------
(Играется 2 раза)

Под куплет:
1|--------------------------------------------------------
2|--------------1-1-1-1-3-1-0--1-1-1-1-1-1-0-3-3-3-3-3-1-0
3|2-2-2-2-2-2-4-------------------------------------------
^ струны

 Басы:
A-0-0-2-0-3-0-2-3--------------------------------------------------------
E-----------------3-3-3-3-3-3-3-3-3-3-3-3--------------------------------
  2 раза
A-0-0-2-0-3-0-2-3--------------------------------------------------------
E-----------------1-1-1-1-1-1-1-1-1-1-1-1-0-0-2-0-3-0-2-3-0-0-2-0-3-0-2-3

Am              G                Am           G
  Мы хотим видеть дальше, чем окна дома напротив,
   Am           F                E
  Мы хотим жить, мы живучи, как кошки.
     Am               G               Am    G
  И вот мы пришли заявить о своих правах: “Да!”
    Am               F         E
  Слышишь шелест плащей - это мы.

      C      G                 Am D
     Дальше действовать будем мы!
      C      G                 Am D / Am G Am G /
     Дальше действовать будем мы!

   Am            G                Am          G
  Мы родились в тесных квартирах новых районов,
   Am            F                    E
  Мы потеряли невинность в боях за любовь.
   Am               G           Am             G
  Нам уже стали тесны одежды, сшитые вами для нас одежды,
     Am               F                   E
  И вот мы пришли сказать вам о том, что дальше.

      C      G                 Am D
     Дальше действовать будем мы!
      C      G                 Am D / Am G Am /
     Дальше действовать будем мы!

Комментарий автора:

Бой:  ↓  ↓ ↓ ( по 3 басовым струнам) ↓( все струны)  ↑ (все струны)
 
 
Свернуть Распечатать

Видео