Виктор Цой - Кукушка, аккорды

Прокрутка
Тональность
Шрифт
100
Соло:
e||---------0----0-----0--3------------------------0----0-----0--3---|
b||-------1---1------3-------3--1-0-1-0----------1---1------3--------|
g||---2-----------------------------------2-0-2----------------------|
d--------------------------------------------------------------------|
a--------------------------------------------------------------------|
e--------------------------------------------------------------------|

e----3---------------------------------------------------|
b|---3--1-0--1-3-----------------------------------------|
g--------------------------------------------------------|
d--------------------------------------------------------|
a--------------------------------------------------------|
E--------------------------------------------------------|

Em                        G
Песен, еще не написанных, сколько?
         D      C
Скажи, кукушка,
   Em
Пропой.
В городе мне жить или на выселках?
Камнем лежать
               D    C
Или гореть звездой?
    Em
Звездой...

Припев:
     D        C               Em
     Солнце мое, взгляни на меня:
    D       C                     Em
     Моя ладонь превратилась в кулак.
    D            C            Em  D C
     И если есть порох, дай огня.
         Em
     Вот так.
Em
Кто пойдет по следу одинокому
 G                                 D   C
Сильные да смелые головы сложили в поле,
 Em
В бою.
 Em
Мало кто остался в светлой памяти,
     G                             D    C
В трезвом уме да с твердой рукой в строю.
 Em
В строю.

Припев
 Em
Где же ты теперь, воля вольная,
   G                                     D     C
С кем же ты сейчас ласковый рассвет встречаешь?
  Em
Ответь!
 Em
Хорошо с тобой да плохо без тебя.
   G                            D    C
Голову да плечи терпеливые под плеть.
 Em
Под плеть.

Припев 2 раза
 
 
Свернуть Распечатать

Видео