Виктор Цой - Песня без слов, аккорды

Прокрутка
Тональность
Шрифт
100
 Вступление (натуральные флажолеты на 12 ладу):
|----------------|
|----------------|
|----------------|
|----------------|
|----х-х-----х-х-|
|х-х-----хххх----|

Под куплет:
 Am                                G 
|----------------|----------------|----------------|-----------|
|----------------|----------------|--------------8~|-----------|
|----------------|----------------|7-----------7---|-----------|
|7---7-5-7---7-5-|7---7-5-7---7-5-|5---5---5-7-----|-----------|
|----------------|----------------|----------------|-----------|
|----------------|----------------|----------------|-----------|
 Dm                                E                F 
|----------------|----------------|----------------|-----------|
|----------------|----------------|--------------8~|-----------|
|----------------|----------------|------------7---|-----------|
|7---7-5-7---7-5-|7---7-5-7---7-5-|9---------7-----|-----------|
|----------------|----------------|7---7---7-------|-----------|
|----------------|----------------|----------------|-----------|

 Am 
Песня без слов, ночь без сна,
 G 
Все в свое время - зима и весна,
 Dm 
Каждой звезде - свой неба кусок,
 E              F 
Каждому морю - дождя глоток.
 Am 
Каждому яблоку - место упасть,
 G 
Каждому вору - возможность украсть,
 Dm 
Каждой собаке - палку и кость,
 E                 F       Am 
И каждому волку - зубы и злость.

         E             Am 
        Снова за окнами белый день,
         E             Am 
        День вызывает меня на бой.
         G               F 
        Я чувствую, закрывая глаза, -
         E               F 
        Весь мир идет на меня войной.

Если есть стадо - есть пастух,
Если есть тело - должен быть дух,
Если есть шаг - должен быть след,
Если есть тьма - должен быть свет.
Хочешь ли ты изменить этот мир,
Сможешь ли ты принять как есть,
Встать и выйти из ряда вон,
Сесть на электрический стул или трон?

        Снова за окнами белый день,
        День вызывает меня на бой.
        Я чувствую, закрывая глаза, -
        Весь мир идет на меня войной
 
 
Свернуть Распечатать

Видео