Виктор Цой - Сказка, аккорды

Прокрутка
Тональность
Шрифт
100
Intro:
 E |----------------------3-----3---2---0-|
 B |-------0------0-3---3-3---3---3---0---|
 G |---0-2---0----0-0---0-----------------|
 D |-2------------------------------------|
 A |--------------------------------------|
 E |--------------------------------------|

       Em 
Снова новый начинается день,
      G              D 
Снова утро прожектором бьет из окна,
  Em                     C 
И молчит телефон: отключен...
        Em 
Снова солнца на небе нет,
       G                 D 
Снова бой, каждый сам за себя,
          Em 
И, мне кажется, солнце -
                 G 
Не больше, чем сон.

 Am            Em 
На экране окна
    D                   Am 
Сказка с несчастливым концом.
 Em              G  
Странная сказка...

И стучит пулеметом дождь,
И по улицам осень идет,
И стена из кирпичей-облаков крепка.
А деревья заболели чумой,
Заболели еще весной,
И слетят с ладони листья,
Махавшие нам свысока.

Там за окном
Сказка с несчастливым концом.
Странная сказка...

А потом придет она.
Собирайся, - скажет, - пошли,
Отдай земле тело...
Ну, а тело не допело чуть-чуть,
Ну, а телу недодали любви.
Странное дело...

Там за окном
Сказка с несчастливым концом.
Странная сказка...

Outro:
 E |------------------------------|
 B |------------------------------|
 G |------------------------------|
 D |-2---------0---------2------0-|
 A |----2---2---------------2-----|
 E |------3------3-2-0--------3---|
 
 

Видео