Виктор Цой - Сосны на морском берегу, аккорды

Прокрутка
Тональность
Шрифт
100
Вступление (легкий дисторшн) - 4 раза
  Em    D             A      Bm               F#m 
 E |--------------------------|----------------|-----------------|
 B |5---5-3~-----3----3-2~----|----------------|-----------------|
 G |4---4-2~-----2----2-2~----|4---4---4---4---|-----------------|
 D |--------------------------|4---4---4---4---|4---4---4---4----|
 A |--------------------------|2-222-222-222-22|4---4---4---4----|
 E |--------------------------|----------------|2-222-222-222-22-|

Все аккорды с барре.

 Em 
Я устал от чужих городов,
     D 
Я устал колоть этот лед,
     A                             Bm 
Я хотел бы уснуть, но нет времени спать.
    Em 
И опять за окнами ночь,
    D 
И опять где-то ждут меня,
    A                 Bm 
И опять я готов идти, опять.

      D 
Но я верю, что ты
        A 
Снова скажешь эти несколько слов,
     Bm            A                      Bm 
И тогда я готов оставить след на этом снегу.
      D 
И я знаю, что мне
    A 
Не долго осталось ждать,
        G           F#m                  Bm 
Чтобы снова увидеть сосны на морском берегу.

Переулки молчат,
Под ногами усталый асфальт,
Но под крышами город продолжает жить.
И пускай фонари,
Светят ярче далеких звезд,
Фонари все погаснут, а звезды будут светить.

Соло:
        Em    D          A       Bm  ............ F#m ............
 E |--------------|--------------|--------------|----------------|
 B |------5---5-3~|--3---3-2~----|--------------|----------------|
 G |------4---4-2~|--2---2-2~----|--------------|----------------|
 D |--------------|--------------|--------------|-----------9-7--|
 A |--------------|--------------|-------5^7/9--|----7^9^10------|
 E |--------------|--------------|--------------|----------------|

  Em                            D 
 E |--------------|--------------|--------------|----------------|
 B |--------------|--------------|--------------|----------------|
 G |--------------|--------------|--------------|7~--------------|
 D |--------------|-----7--------|------------7-|----------------|
 A |10~-----------|------10---9^7|^9-------10---|----------------|
 E |--------------|--------------|--------------|----------------|

  A                             Bm 
 E |--------------|--------------|--------------|----------------|
 B |--------------|-/10-8-7------|--------------|------------10-9|
 G |6~------------|---------9-7^6|^7---6^4^6-4^2|^4--------------|
 D |--------------|--------------|--------------|----------------|
 A |--------------|--------------|--------------|----------------|
 E |--------------|--------------|--------------|----------------|

  Em                                  D 
 E |--------------|--------------|--------------|----------------|
 B |8-------------|--------------|--/8---7-8~---|--/7---5-7~-----|
 G |--------------|7-------------|--/7---7-7~---|--/7---6-7~-----|
 D |--------------|--------------|--------------|----------------|
 A |--------------|--------------|--------------|----------------|
 E |--------------|--------------|--------------|----------------|

  A                                        Bm 
 E |------------------|---------------------|------|-------------|
 B |10^8^7-7-8^7------|---------------------|------|-------------|
 G |------9-----9^7^9-|7--------------------|------|-------------|
 D |------------------|-10^9^7-10-7---------|------|----------7-9|
 A |------------------|------------10^9^7-10|------|---7-9-10----|
 E |------------------|---------------------|10-9-7|10-----------|
 
 

Видео