Виктор Цой - Закрой за мной дверь, аккорды

Прокрутка
Тональность
Шрифт
100
E |----------------------------|----------------------------|
B |----------------------------|--2--3--2-----2-------------|
G |--4-------------------------|--2--------4--------2-------|
D |--4--------4----------------|--2--------------2-----2----|
A |--2--2--2-----2--2--5--2----|----------------------------|
E |----------------------------|----------------------------|

----------------------------|
----------------------------|
----------------------------|
--4--------4----------------|
--4-----------------4-------|
--2--2--2-----2--2-----2----|

----------------------------------------------------|
-----------------------0--3-----------3-------------|
--------------------2s-4--------------------6-------|
--5-----------------------------5-------------------|
--5-------------------------------------------------|
--3-------------------------------------------------|

----------------------------|----------------------------|
--2--------3----------------|--2--3--2-----2-------------|
----------------------------|--2--------4--------2-------|
----------------------------|--2--------------2-----2----|
----------------------------|----------------------------|
----------------------------|----------------------------|

----------------------------|----------------------------|
----------------------------|--------------3--5--3-------|
----------------------------|--------------4--------6----|
--4--------4----------------|--5-----------5-------------|
--4-----------------4-------|--5-------------------------|
--2--2--2-----2--2-----2----|--3-------------------------|

----------------------------|----------------------------|
----------------------------|----------------------------|
----------------------------|--4--------2----------------|
-----------4--------5-------|--------------------2-------|
--2--2--2-----2--2-----2----|-----0--0-----0--0-----0----|
----------------------------|----------------------------|

----------------------------|----------------------------|
----------------------------|----------------------------|
----------------------------|----------------------------|
--4--------2----------------|----------------------------|
--------------------5-------|--4--------5--------4-------|
-----2--2-----2--2-----2----|-----3--3-----3--3-----3----|

----------------------------|----------------------------|
----------------------------|----------------------------|
----------------------------|----------------------------|
--------------------4--5----|--4--4--4--2--2--2----------|
--4--4--4--2--2--2----------|--------------------5--5----|
----------------------------|----------------------------|

Bm                          A
Они говорят, им нельзя рисковать,
                      F#m
Потому что у них есть дом.
             G    Bm
В доме горит свет.
                              A
И я не знаю точно, кто из нас прав.
                   F#m
Меня ждет на улице дождь.
              G
Их ждет дома обед.

Припев:
  Bm                A
     Закрой за мной дверь,
          F#m7  G
     Я ухожу.
  Bm                A
     Закрой за мной дверь,
          F#m7  G Bm
     Я ухожу.

И если тебе вдруг наскучит твой ласковый свет,
Тебе найдется место у нас.
Дождя хватит на всех.
Посмотри на часы, посмотри на портрет на стене.
Прислушайся, там за окном
Ты услышишь наш смех.

Припев 4 раза
 
 
Свернуть Распечатать

Видео