Виктор Цой - Мои друзья, аккорды

Прокрутка
Тональность
Шрифт
100
 Em   G     D  C   D     Em
Пришел домой и как всегда опять один
 Em   G D      C       D  Em
Мой дом пустой но зазвонит вдруг телефон
 Em     C           D    Em
И будут в дверь стучать и с улицы кричать
 D     Em
Что хватит спать
 C          D         Em
И пьяный голос скажет 'дай пожрать'
 Em   D                Em
Мои друзья всегда идут по жизни маршем
 Em    C       D       Em
И остановки только у пивных ларько-о-о-ов

E|--0-3-2-3-0-----|
B|--------------3-|     Em

Мой дом был пуст, теперь народу там полно,
В который раз мои друзья там пьют вино,
И кто-то занял туалет уже давно, разбив окно.
А мне уже, признаться, всё равно.

Припев.

А я смеюсь, хоть мне и не всегда смешно,
И очень злюсь, когда мне говорят,
Что жить вот так, как я сейчас, - нельзя.
Но почему? Ведь я живу.
На это не ответить никому.

Припев.

Комментарий автора:

E|--3--3---2--2----0---0----3--2--0-------|
B|--4---4--3---3---1----1------------3----|
G|--5------4-------2----------------------|    Em
D|--5------4-------2----------------------|
A|--3------2-------0----------------------|
E|----------------------------------------|
 
 

Видео