Военные, армейские песни - Серёжка с Малой Бронной, аккорды

Прокрутка
Тональность
Шрифт
100
     Dm            E7 
В полях за Вислой сонной 
   A7            Dm 
Лежат в земле сырой 
   Dm             E7 
Сережка с Малой Бронной 
   A7           D7 
И Витька с Моховой. 
    Gm             C7 
А где-то в людном мире 
   F            B 
Который год подряд 
   Dm              E 
Одни в пустой квартире 
    A          Dm 
Их матери не спят. 
 
Проигрыш: 
     Dm      E7    A7      Dm 
E|---------------------------| 
B|---------------------------| 
G|---------------------------| 
D|---0-2-3-0-2-2-0---0-2---0-| 
A|-0---------------4-----4---| 
E|---------------------------| 
 
Свет лампы воспаленной 
Пылает над Москвой 
В окне на Малой Бронной, 
В окне на Моховой. 
 
Друзьям не встать. В округе 
Без них идет кино, 
Девчонки - их подруги 
Все замужем давно. 
 
Проигрыш: 
     Dm      E7    A7      Dm    Dm      E7    A7      D7 
E|-------------------------------|---------------------------|
B|-------------------------------|---------------------------|
G|-----------------------------2-|---------------------------| 
D|---0-2-3-0-2-2-0---0-2---0-----|---0-2-3-0-2-2-0---0-2-----| 
A|-0---------------4-----4-------|-0---------------4-----4---| 
E|-------------------------------|---------------------------|
 
Но помнит мир спасенный, 
Мир вечный, мир живой 
Сережку с Малой Бронной 
И Витьку с Моховой. 
Сережку с Малой Бронной 
И Витьку с Моховой.
 
 

Видео