Военные, армейские песни - Смотри города, аккорды

Прокрутка
Тональность
Шрифт
100
Основная тема: 
--------------------------------------|-----------------------------------|
-------10-----10----9-----10-----9----|-------9------9----10------9-----9-|
-----9----9-------9----9------9-----9-|----10--10----10----10----10-----9-|
---7--------7-------------7------7----|--11-------11------------11----11--|
-0------------------------------------|-0---------------------------------|
--------------------------------------|-----------------------------------|

---------------------------------------|---------------------------------|
-------10-----10----12-----10-----12---|--------7-----7----6----6-----6--|
-----11--11----11-----11-----11-----11-|-----7---7-----7-----7----7----7-|
---11-------11------------11-----11----|---7-------7------------7----7---|
---------------------------------------|-0-------------------------------|
-0-------------------------------------|---------------------------------|

A                        C#
Мысли как туман иллюзия покоя
F#m              D         Dm
И каждая своё приносит в общий бред
Чувства как кино без главного героя
Где роль второго плана выходит наперёд

И вроде всё ничего вроде всё нормально
И последний отчёт не нарушает банальность
Но как себя понять
И не так глубоко ну давай ныряй же
Всего шаг и прыжок и плыви дальше
И плевать что себя не догнать

Смотри города да только мне туда не надо
Бегут поезда опять я просижу в засаде
Смотри города да только мне туда не надо
Бегут поезда опять я просижу в засаде

Мысли о тебе как комнатное эхо
Рождаются на дне уходят в потолок
Беззубая мечта лишь отголосок детства
Где человеком стал железный дровосек

И вроде всё нормально вроде всё ничего
Но плывешь по течению словно бревно
И как себя спасти
Протяни руку поцелуй горячо
Как когда-то принцессу целовал дурачёк
Взлетая над пропастью

Смотри города да только мне туда не надо
Бегут поезда опять я просижу в засаде
Смотри города да только мне туда не надо
Бегут поезда опять я просижу в засаде

Потому что я лох и ничего не значу
Не поможет даже монета "на удачу"
Сижу в своих четырёх
Все бегут к мечте решают задачи
Только я сижу и ничего не значу
Про себя считаю до трёх
Раз.. Два.. Три..

Смотри города да только мне туда не надо
Бегут поезда опять я просижу в засаде
Смотри города да только мне туда не надо
Бегут поезда опять я просижу в засаде
...опять я просижу в засаде
...опять я просижу в засаде