Все комментарии (2)
Подписаться
Hrubst11 мая 2015 в 14:04:32
  новый
Рейтинг комментария
0
Подобрал. Прошу прощения за качество табов - первый раз пишу :)

----------------0----------------------------0---------------------------
--------7----------7--------------------7----------7-------------------
----6-----------------6-------------6-----------------6----------------
4----------4-------------4----4----------------4---------4------------
--------------------------------------------------------------------------
--------------------------------------------------------------------------



----------------0-------------------------0------------------------------
--------7----------7------------------3--------3------------------------
----6-----------------6-----------2----------------2--------------------
0----------0-------------0----0------------0---------0----------------
--------------------------------------------------------------------------
--------------------------------------------------------------------------
Профиль ednnyu
ednnyuавтор12 мая 2015 в 16:01:58
  новый
Рейтинг комментария
0
спасибо)

Только зарегистрированные пользователи могут оставлять комментарии. Войдите, пожалуйста.