5nizza - Стрела, аккорды

Прокрутка
Тональность
Шрифт
100
Вступление: x2
    Dm                         Dm7/C         
e|-----------1--------1-----|--------------------|
B|--------3-----------------|--------------------|
G|-----2-----------2-----2--|--------------------|
D|--0-----------------------|--------------------|
A|--------------------------|--3-----3-----3-3---|
E|--------------------------|--------------------|

   G7/B           G6/B        Bb6-5          A7
|-----------1--------------|--------------------|
|--------3--------3-----3--|--------------------|
|-----0--------------0-----|--------------------|
|--------------------------|--------------------|
|--2-----------------------|--1-----1-----1-0---|
|--------------------------|--------------------|

        Dm               Dm7/C
Моя стрела опоздала, подарил тебе дождь,
    G7/B    G6/B       Bb6-5            A7
Прости... Мне бы подрасти, боюсь сойти на
        Dm               Dm7/C
Ум. Да, я снова на краю, время отдаю
    G7/B    G6/B       Bb6-5  A7
You... Не хватает пустоты, ты.
        Dm               Dm7/C
Все, что исчезло вдруг вокруг, только звук упавших
    G7/B    G6/B       Bb6-5   A7
Век, дверь и стук, снег, разбег.
        Dm               Dm7/C
Лед уйдет, я войду из пустоты,
    G7/B    G6/B       Bb6-5   A7
Это ты, просто ты, ты была всегда!

Проигрыш: x2
    Dm                         Dm7/C         
e|-----------1--------1-----|--------------------|
B|--------3-----------------|--------------------|
G|-----2-----------2-----2--|--------------------|
D|--0-----------------------|--------------------|
A|--------------------------|--3-----3-----3-3---|
E|--------------------------|--------------------|

   G7/B           G6/B        Bb6-5          A7
|-----------1--------------|--------------------|
|--------3--------3-----3--|--------------------|
|-----0--------------0-----|--------------------|
|--------------------------|--------------------|
|--2-----------------------|--1-----1-----1-0---|
|--------------------------|--------------------|

        Dm               Dm7/C
Моя волна ожидания полна, моя вина,
    G7/B    G6/B       Bb6-5   A7
Глубина... Мокрая стена передо мною.
        Dm               Dm7/C
Ночь, но она не сможет мне помочь,
    G7/B    G6/B       Bb6-5   A7
Слова... Кругом голова уходит прочь.
        Dm               Dm7/C
То, о чем не нужно знать ни тебе не мне,
    G7/B    G6/B       Bb6-5   A7
Вне нас миллионы глаз, миллионы фраз...
        Dm               Dm7/C
Пусть нам осталась грусть, но она одна,   
  G7/B G6/B Bb6-5 A7
Бездна!                                   

    Dm                         Dm7/C         
e|-----------1--------1-----|--------------------|
B|--------3-----------------|--------------------|
G|-----2-----------2-----2--|--------------------|
D|--0-----------------------|--------------------|
A|--------------------------|--3-----3-----3-3---|
E|--------------------------|--------------------|

   G7/B           G6/B        Bb6-5          A7
|-----------1--------------|--------------------|
|--------3--------3-----3--|--------------------|
|-----0--------------0-----|--------------------|
|--------------------------|--------------------|
|--2-----------------------|--1-----1-----1-0---|
|--------------------------|--------------------|

Моя стрела...
 
 
Свернуть Распечатать

Видео