Запрещают песни Цоя, Агата Кристи, Наутилус Помпилиус, Зиверт
Отвечаем в отдельной теме

- Городу на Неве, аккорды

Прокрутка
Тональность
Шрифт
100
Вступление:
   Bm               A               Em    
1|--------0---------------0---------------0---------
2|------3-------3-------2-------2-------0-------0---
3|----4-------4---4---2-------2---2---0-------0---0-
4|--------------------------------------------------
5|--2---------------0-------------------------------
6|----------------------------------0---------------
 
   Bm              A               Em
1|-------0---------------0---------------0----------
2|-----3-------3-------2-------2-------0-------0----
3|---4-------4---4---2-------2---2---0-------0---0--
4|--------------------------------------------------
5|-2---------------0--------------------------------
6|---------------------------------0----------------

   Bm
1|-------0---------
2|-----3-------3---
3|---4-------4---4-
4|-----------------
5|-2---------------
6|-----------------

Куплет 1:
   D               A               Bm
1|-------3---------------0---------------0----------
2|-------------2-------2-------2-------4-------4----
3|---3-------3---3---2-------2---2---3-------3---3--
4|-0------------------------------------------------
5|-----------------0---------------2----------------
6|--------------------------------------------------
   Есть город на Неве, я там еще не разу не был.

    Bm
1|-------0----------
2|-----4-------4----
3|---3-------3---3--
4|------------------
5|-2----------------
6|------------------

  A                 Em              Bm
1|--------0---------------0---------------0---------
2|------2-------2-------0-------0-------4-------4---
3|----2-------2---2---0-------0---0---3-------3---3-
4|--------------------------------------------------
5|-0--------------------------------2---------------
6|------------------0-------------------------------
   Есть город на Неве, я там бываю во сне.
 
    Bm
1|-------0----------
2|-----4-------4----
3|---3-------3---3--
4|------------------
5|-2----------------
6|------------------

    G              G               D
1|--------0---------------0---------------3---------
2|------0-------0-------0-------0-------2-------2---
3|----1-------1---1---1-------1---1---3-------3---3-
4|----------------------------------0---------------
5|--------------------------------------------------
6|--0---------------0-------------------------------
    Санкт-Петербург, Петроград, Ленинград

   D
1|-------3----------
2|-------------2----
3|---3-------3---3--
4|-0----------------
5|------------------
6|-------------------

   E               A               Bm
1|--------0---------------0---------------0---------
2|------0-------0-------2-------2-------4-------4---
3|----0-------0---0---2-------2---2---3-------3---3-
4|--------------------------------------------------
5|------------------0---------------2---------------
6|-0------------------------------------------------
      Разводные мосты, живые каменные львы.

    Bm
1|-------0----------
2|-----4-------4----
3|---3-------3---3--
4|------------------
5|-2----------------
6|------------------

    G               G               Bm
1|--------0---------------0---------------0---------
2|------0-------0-------0-------0-------4-------4---
3|----1-------1---1---1-------1---1---3-------3---3-
4|--------------------------------------------------
5|----------------------------------2---------------
6|--0---------------0-------------------------------
    Зимним светом полярной звезды, отражением кладов

   Bm
1|-------0----------
2|-----4-------4----
3|---3-------3---3--
4|------------------
5|-2----------------
6|------------------
   со дна Невы
 
    E              Am              G
1|--------0---------------0---------------0---------
2|------0-------0-------2-------2-------0-------0---
3|----0-------0---0---2-------2---2---1-------1---1-
4|--------------------------------------------------
5|------------------0-------------------------------
6|--0-------------------------------0---------------
    Звездный парад, мелодии белых ночей.

   G
1|-------0----------
2|-----0-------0----
3|---1-------1---1--
4|------------------
5|------------------
6|-0----------------

Припев:
D             A
Сказка во сне-eeeeeee 
E          Bm          
Город на Неве.        
D             A
Сказка во сне-eeeeeee 
E          Bm          
Город на Неве.        

Куплет 2:
   D               A               Bm
1|-------3---------------0---------------0----------
2|-------------2-------2-------2-------4-------4----
3|---3-------3---3---2-------2---2---3-------3---3--
4|-0------------------------------------------------
5|-----------------0---------------2----------------
6|--------------------------------------------------
   Есть город на Неве, ему от роду триста лет.

    Bm
1|-------0----------
2|-----4-------4----
3|---3-------3---3--
4|------------------
5|-2----------------
6|------------------

  A                 Em              Bm
1|--------0---------------0---------------0---------
2|------2-------2-------0-------0-------4-------4---
3|----2-------2---2---0-------0---0---3-------3---3-
4|--------------------------------------------------
5|-0--------------------------------2---------------
6|------------------0-------------------------------
   Есть город на Неве, такого нет на всей земле.

    Bm
1|-------0----------
2|-----4-------4----
3|---3-------3---3--
4|------------------
5|-2----------------
6|------------------

    G              G               D
1|--------0---------------0---------------3---------
2|------0-------0-------0-------0-------2-------2---
3|----1-------1---1---1-------1---1---3-------3---3-
4|----------------------------------0---------------
5|--------------------------------------------------
6|--0---------------0-------------------------------
   Санкт-Петербург, Петроград, Ленинград

   D
1|-------3----------
2|-------------2----
3|---3-------3---3--
4|-0----------------
5|------------------
6|-------------------

   E               A               Bm
1|--------0---------------0---------------0---------
2|------0-------0-------2-------2-------4-------4---
3|----0-------0---0---2-------2---2---3-------3---3-
4|--------------------------------------------------
5|------------------0---------------2---------------
6|-0------------------------------------------------
   Город герой, во славу царей и вождей.

    Bm
1|-------0----------
2|-----4-------4----
3|---3-------3---3--
4|------------------
5|-2----------------
6|------------------

    G               G               Bm
1|--------0---------------0---------------0---------
2|------0-------0-------0-------0-------4-------4---
3|----1-------1---1---1-------1---1---3-------3---3-
4|--------------------------------------------------
5|----------------------------------2---------------
6|--0---------------0-------------------------------
   Зимним светом полярной звезды, отражением кладов

   Bm
1|-------0----------
2|-----4-------4----
3|---3-------3---3--
4|------------------
5|-2----------------
6|------------------
со дна Невы

    E              Am              G
1|--------0---------------0---------------0---------
2|------0-------0-------2-------2-------0-------0---
3|----0-------0---0---2-------2---2---1-------1---1-
4|--------------------------------------------------
5|------------------0-------------------------------
6|--0-------------------------------0---------------
  Звездный порад, мелодии белых ночей.

Припев:
D             A
Сказка во сне-eeeeeee 
E          Bm          
Город на Неве.        
D             A
Сказка во сне-eeeeeee 
E          Bm          
Город на Неве.

Концовка:
Как это часто случается, в качестве концовки песни выступает
ее начало. Но что интересно, играется все это в конце уже перебором -3-2-3-1-3-2-3. 
Хотя если сыграть прежним катастрофы не случится. Аккорды, разумеется, прежние. По мере 
исполнения концовки стараемся извлекать звук как из гитары, так и из собственных связок 
все тише, так чтобы последнюю строчку было практически не слышно.

   Bm               A               Em    
1|--------0---------------0---------------0---------
2|------3-------3-------2-------2-------0-------0---
3|----4-------4---4---2-------2---2---0-------0---0-
4|--------------------------------------------------
5|--2---------------0-------------------------------
6|----------------------------------0---------------
 
   Bm              A               Em
1|-------0---------------0---------------0----------
2|-----3-------3-------2-------2-------0-------0----
3|---4-------4---4---2-------2---2---0-------0---0--
4|--------------------------------------------------
5|-2---------------0--------------------------------
6|---------------------------------0----------------

   Bm
1|-------0---------
2|-----3-------3---
3|---4-------4---4-
4|-----------------
5|-2---------------
6|-----------------

Есть город на Неве, я там еще не разу не был.
Есть город на Неве, я там бываю во сне.
...я там бываю во сне.
...бываю во сне.
...я там бываю во сне.
...во сне.
...там бываю во сне.

Комментарий автора:

Это подбор с исправленными аккордами:http://www.amdm.ru/akkordi/7b/3799/gorody_na_neve/
 
 
Свернуть Распечатать

Аппликатуры аккордов

Аккорд BmАккорд AАккорд EmАккорд DАккорд GАккорд EАккорд Am
помощники
17,876 6 19.05.2014

Видео